Oops, an error
Loading. Please wait.

Scumfuck tab

version 1
version 1

Whole song

Interactive

by Sum 41
21,314 views 3 this week
10 commentsread comments
1 2 3 4 5
x 17
add to favorites
×
Save as Personal and add changes to this tab that will be seen only by you. Learn more ›
×
You can save this tab as Personal to edit and correct it or add notes. All changes will be seen only by you. Learn more »
launch autoscroll
font size
0
reset
how to read this tab
guitar tuner
edit
Autoscroll
slow
fast
+/-
esc
set tempo
stop
Artist: Sum 41
Song: Scumfuck
Album: Screaming Bloody Murder (2010)
tabbed by: necriononguitar
e-mail (NO SPAM!): tim.rathgen@gmx.de

REAL FANS SUPPORT BANDS BY PURCHASING THEIR CD'S!!!


. = Palm-Muted
~ = hold note
^ = vibrate
p = pull off
h = hammer on
/ = slide up
\ = slide down
u = upstroke
d = downstroke


Tuning: Standard


Want the easiest way to learn the song on bass? check out this cover of my brother 
SCUMFUCK WITH TABS:
http://www.youtube.com/watch?v=9fDK89fEDKE

"""Intro"""
Version 1     (See Sum 41 Studio update 4 to see deryck play it...)

!CORRECT!      thanks to YaiRocker
     E5          C5            C/B5          E/Eb5
E-------------------------------------------------------------------|
B-------------------------------------------------------------------|
G----9-9--xxxx--(9)(9)--xxxx--(8)(8)--xxxx---8-8--xxx---------------|
D----9-9--xxxx---10-10--xxxx---9--9---xxxx---9-9--xxx---------------|
A----7-7--xxxx---10-10--xxxx---10-10--xxxx---6-6--xxx---------------|
E----------------8--8---xxxx---7--7---xxxx--------------------------|
     d d  dudu   d  d   dudu   d  d   dudu   d d  dudu


Version 2     (I kinda failed, thanks to YaiRocker i got right now)
INCORRECT/EASIER
If i knew about the update before, i would have gotten it right, sorry!

    Em         C5         B5         Eb/E5
E----------0---------------------------------------------|
B----------0---------------------------------------------|
G----------0---5-5-5--5---4-4-4--4/--9-9-9--9------------|
D---2---2--2---5-5-5--5---4-4-4--4/--8-8-8--8------------|
A---2-2-2--2---3-3-3--3---2-2-2--2/--6-6-6--6------------|
E---0-0-0--0---------------------------------------------|
    d u d  d   d u d  d   d u d  d   d u d  d


Version 2  (See Sum 41 Studio update 4 to see deryck play it...)
     E           C             C/B           E/Eb
E-------------------------------------------------------------------|
B-------------------------------------------------------------------|
G----9-9--xxxx--(9)(9)--xxxx--(8)(8)--xxxx---8-8--xxx---------------|
D----9-9--xxxx---10-10--xxxx---9--9---xxxx---9-9--xxx---------------|
A----7-7--xxxx---10-10--xxxx---10-10--xxxx---6-6--xxx---------------|
E----------------8--8---xxxx---7--7---xxxx--------------------------|
     d d  dudu   d  d   dudu   d  d   dudu   d d  dudu

"""Verse"""    0:18    (just a clearer sound, guitar stays the same)
    Em         C5         B5         Eb/E5
E----------0---------------------------------------------|
B----------0---------------------------------------------|
G----------0---5-5-5--5---4-4-4--4/--9-9-9--9------------|
D---2---2--2---5-5-5--5---4-4-4--4/--8-8-8--8------------|
A---2-2-2--2---3-3-3--3---2-2-2--2/--6-6-6--6------------|
E---0-0-0--0---------------------------------------------|
    d u d  d   d u d  d   d u d  d   d u d  d

"""Chorus"""    0:35     (i think both ways sound good)
Version 1
    G5                   B5                   E5
E---------------------------------------------------------------------------|
B---------------------------------------------------------------------------|
G------------------------4--4-4--4-4--4-4--4--------------------------------|
D---5--5-5--5-5--5-5--5--4--4-4--4-4--4-4--4--2--2-2--2-2--2-2--2-----------|
A---5--5-5--5-5--5-5--5--2--2-2--2-2--2-2--2--2--2-2--2-2--2-2--2-----------|
E---3--3-3--3-3--3-3--3-----------------------0--0-0--0-0--0-0--0-----------|
    d  u d  u d  u d  u  d  u d  u d  u d  u  d  u d  u d  u d  u

     C5
E----------------------------------|
B----------------------------------|
G----5--5-5--5-5--5-5--5-----------|
D----5--5-5--5-5--5-5--5-----------|
A----3--3-3--3-3--3-3--3-----------|
E----------------------------------|
     d  u d  u d  u d  u


Version 2
     G5       B5        E5      C5
E----------------------------------------------|
B----------------------------------------------|
G-------------4-----------------5--------------|
D----5--------4-x8------2-------5-x8-----------|
A----5-x8-----2---------2-x8----3--------------|
E----3------------------0----------------------|
     d u d u d u d u d u d u d u d u d u   and so on...

"""Post-Chorus"""    0:57
Guitar 1
    E5               B5               C5               G5
E----------------------------------------------------------------------------|
B----------------------------------------------------------------------------|
G---9-9-9-9-9-9-9-9--4-4-4-4-4-4-4-4--5-5-5-5-5-5-5-5------------------------|
D---x-x-x-x-x-x-x-x--x-x-x-x-x-x-x-x--x-x-x-x-x-x-x-x--5-5-5-5-5-5-5-5-------|
A---7-7-7-7-7-7-7-7--2-2-2-2-2-2-2-2--3-3-3-3-3-3-3-3--x-x-x-x-x-x-x-x-------|
E------------------------------------------------------3-3-3-3-3-3-3-3-------|
    d u d u d u d u  d u d u d u d u  d u d u d u d u  d u d u d u d u

or

   E5               B5               C5               G5
E-----------------------------------------------------------------------------|
B-----------------------------------------------------------------------------|
G--9-9-9-9-9-9-9-9--4-4-4-4-4-4-4-4--5-5-5-5-5-5-5-5--12-12-12-12-12-12-12-12-|
D--x-x-x-x-x-x-x-x--x-x-x-x-x-x-x-x--x-x-x-x-x-x-x-x--x--x--x--x--x--x--x--x--|
A--7-7-7-7-7-7-7-7--2-2-2-2-2-2-2-2--3-3-3-3-3-3-3-3--10-10-10-10-10-10-10-10-|
E-----------------------------------------------------------------------------|
   d u d u d u d u  d u d u d u d u  d u d u d u d u  d  u  d  u  d  u  d  u


Guitar 2  at the 2. E5
          E5
E-----------------------------------------|
B-----------------------------------------|
G---x-x-x-9~---(9)\-----------------------|
D---x-x-x-9~---(9)\-----------------------|
A---x-x-x-7~---(7)\-----------------------|
E---x-x-x---------------------------------|
    d u d u

"""Verse 2"""    1:08
    E5          B5          C5                   G5
E-----------------------------------------------------------------------|
B-----------------------------------------------------------------------|
G---9-9-9-9-----4-4-4-4-----5--5-5--5-5--5-5--5-------------------------|
D---9-9-9-9-----4-4-4-4-----5--5-5--5-5--5-5--5--5--5-5--5-5--5-5--5----|
A---7-7-7-7-----2-2-2-2-----3--3-3--3-3--3-3--3--5--5-5--5-5--5-5--5----|
E------------------------------------------------3--3-3--3-3--3-3--3----|
    d u d u     d u d u     d  u d  u d  u d  u  d  u d  u d  u d  u

U can play the C5 and G5 like the 2. version of the chorus too (up-down only)

"""Chorus"""
just repeat it...
oh and u can play a C5 and D5 instead of only the C5 every second time

"""Outro"""    1:43
theres no actual guitar in this part...
but the piano or rather the organ plays   E5 B5 C5 G5   over and over


and that's it! i hope this helped, please rate, comment and correct me!
oh and especially have fun playing this awesome new Sum song.

Cheers...

            
            
Suggest correction
Creating personal tab
Creating personal tab
You can edit any tab online and save it as your Personal.

You can edit, replace or remove any tab part or add personal notes – all changes will be seen only by you.

Personal tabs can be accessed anytime from any device, even offline.
Learn more »
comments
print report bad tab
10 comments total. Showing first comments.
0 reply
RocknRollKing 10 Jul 15, 2010 07:15 AM

another great tab by necrion!

0 reply
Caboose911 223 Jul 15, 2010 07:19 AM

great tab bro! sounds perfect!
not sum's best song, but it's still amazing :D

0 reply
necriononguitar 3,062 Jul 15, 2010 07:59 AM

yep cant wait for the new album, its gonna be... different?

guest
You may want to rate the tab now too:
select rating
Wanna post a correction for this tab? Suggest correction