Oops, an error
Loading. Please wait.
We have an official Thanks For Nothing tab made by UG professional guitarists. Check out the tab »
×
by Sum 41
1,681 views 6 this week
3 commentsread comments
1 2 3 4 5
x 3
add to favorites
×
Save as Personal and add changes to this tab that will be seen only by you. Learn more ›
×
You can save this tab as Personal to edit and correct it or add notes. All changes will be seen only by you. Learn more »
launch autoscroll
font size
0
reset
transpose
0
reset
display chords
guitar tuner
edit
Autoscroll
slow
fast
+/-
esc
set tempo
stop
Author
Difficulty
Strumming
There is no strumming pattern for this song yet. and get +5 IQ
Hi guys, this is my first tab/chords.
I am not sure that is 100% correct, but it sounds good! I hope you will like it!

INTRO(you can hear it between 00:00 and 00:10) - Strumming is: Down,Down, Down Up,

e|-----------------------------------------------|
B|-----------------------------------------------|
G|-7-7-7-7--3-3-3-3-----------------5-5-5-5------|
D|-7-7-7-7--3-3-3-3----3-3-3-3------5-5-5-5------|
A|-5-5-5-5--1-1-1-1----3-3-3-3------3-3-3-3------|
E|---------------------3-3-3-3-------------------| 

e|-----------------------------------------------|
B|-----------------------------------------------|
G|-7-7-7-7--3-3-3-3-----------------5------------|
D|-7-7-7-7--3-3-3-3---3-3-3-3-------5------------|
A|-5-5-5-5--1-1-1-1---3-3-3-3-------3------------|
E|--------------------3-3-3-3--------------------|

 
Pre-Verse
(you can hear it between 0:11 and 0:20)

e|-----------------------------------------------------|
B|-----------------------------------------------------|
G|-----------------------------------------------------|
D|-0-2-3-3--------2-3-3-------2-3-3------5-5-3-2-------|
A|-----------1-1------------------------------------3--|
E|-------------------------1---------------------------| x2

Verse  (from 00:21 to 00:37)

     C#m                         A
I'll never take part in the grown population
     E                           B
Or waste my time with further education
      C#m                        A
To get what we know, is just a big show
       E               B
Where they want to control
      C#m               A
So chained and frustrated
     E                B 
It's all so complicated
   C#m         A          E
Fashion, no passion surrounds me

Chorus (from 00:38 to 00:55, from 00:56 to 01:06)

   B          C#m                    A
All I know is I've heard this all before
                 E
Reality's a bore (is a bore)
               B
You ask me to believe it (never believe)
                 C#m
Something they provide
                    A
Can't bring myself to, do what
             E
You want me to (want me to)
                B
This is who we are and (who we are)
       Pre-Verse
nothing's gonna change, nothing's gonna change

Verse (2) (from 01:07 to 01:23)

  C#m                         A               
I  can't take part in the business revolution
     E                           B                                   
Or take my chance in the real world confusion
 C#m                 A                         E              B
Don't blame us, who do we trust when they're so dis-a-honest
  C#m               A              E               B               
No patience, this nation's obsessed with exploitation
  C#m    A           E
Lying, denying surrounds me

Chorus (from 01:24 to 01:44)

    B          C#m                    A
All I know is I've heard this all before
                 E
Reality's a bore (is a bore)
                   B
You ask me to believe it (never believe)
                   C#m
Something they provide
                    A
Can't bring myself to, do what
             E
You want me to (want me to)
              B
This is who we are and (who we are)

                   C#m
Nothing's gonna change.

Bridge - (sorry guys i don't know the bridge) (from 01:45 to 02:11)

(what!) Don't think you can ignore us (ignore us)
Don't tell me your word is right (word is right)
Don't pick a future for us (for us)
We lack 'cause we're involved!!

Chorus (from 02:22 to 02:31)

    B          C#m                    A
All I know is I've heard this all before
              E
Reality's a bore (is a bore)
                 B
You ask me to believe it (never believe)
                 C#m
Something they provide
                    A
Can't bring myself to, do what
             E
You want me to (want me to)
                 B
This is who we are and (who we are)

                  C#m
Nothing's gonna change.

INTRO (from 02:31 to 02:52)

Thanks for nothing (I've heard this all before),
Thanks for nothing (reality's a bore),
Thanks for nothing (it'll never be the same),
Thanks for nothing (and nothing's gonna change) 

            
            
Suggest correction
Creating personal tab
Creating personal tab
You can edit any tab online and save it as your Personal.

You can edit, replace or remove any tab part or add personal notes – all changes will be seen only by you.

Personal tabs can be accessed anytime from any device, even offline.
Learn more »
Give kudos to tab author, rate the tab!
1 2 3 4 5
comments
print report bad tab
3 comments total.
0 reply
XxXDarknessXxX 10 Apr 12, 2012 06:01 AM

nice work bro

0 reply
Sumlover41 52 Apr 12, 2012 07:09 AM

The intro the the "pre-verse" is in the wrong key.

0 reply
elod3824 21 Apr 13, 2012 10:22 AM

INTRO
e|-----------------------------------------------|
B|-----------------------------------------------|
G|-6-6-6-6--2-2-2-2-----------------4-4-4-4------|
D|-6-6-6-6--2-2-2-2----2-2-2-2------4-4-4-4------|
A|-4-4-4-4--0-0-0-0----2-2-2-2------2-2-2-2------|
E|---------------------2-2-2-2-------------------|

e|-----------------------------------------------|
B|-----------------------------------------------|
G|-6-6-6-6--2-2-2-2-----------------4------------|
D|-6-6-6-6--2-2-2-2----2-2-2-2------4------------|
A|-4-4-4-4--0-0-0-0----2-2-2-2------2------------|
E|---------------------2-2-2-2-------------------|

Pre-verse
e|-----------------------------------------------------|
B|-----------------------------------------------------|
G|-----------------------------------------------------|
D|---1-2-2--------1-2-2-------1-2-2------4-4-2-1-------|
A|-4----------0-0-----------------------------------2--|
E|-------------------------0---------------------------| x2

guest
You may want to rate the tab now too:
select rating
Wanna post a correction for this tab? Suggest correction