Oops, an error
Loading. Please wait.
We have an official Underclass Hero tab made by UG professional guitarists. Check out the tab »
×

Underclass Hero tab

by Sum 41
5,120 views 3 this week
4 commentsread comments
1 2 3 4 5
x 4
add to favorites
×
Save as Personal and add changes to this tab that will be seen only by you. Learn more ›
×
You can save this tab as Personal to edit and correct it or add notes. All changes will be seen only by you. Learn more »
launch autoscroll
font size
0
reset
how to read this tab
guitar tuner
edit
Autoscroll
slow
fast
+/-
esc
set tempo
stop
Difficulty
intermediate
Gtr I (E A D G B E) - 'Untitled'
Gtr II (E A D G B E) - 'Untitled'
Gtr III (E A D G B E) - 'Untitled'

  Q=192
 4/4
  Gtr I
  E E Q E E Q   E E Q E E Q   E E Q E E Q   E E Q E  E Q   E E Q E E Q
|-------------|-------------|-------------|--------------|-------------|
|-------------|-------------|-------------|--------------|-------------|
|-------------|-------------|-------------|--------------|-------------|
|-------6-7-6-|-------6-7-6-|-------6-7-6-|--------------|-------6-7-6-|
|-----7-------|-----7-------|-----7-------|-----7------9-|-----7-------|
|-0-0---------|-7-7---------|-5-5---------|-5-5---7--7---|-0-0---------|
|
| Gtr II
|     W               W             W             H. E E   Q Q E E E E
|-------------|-------------|-------------|----------x-x-|-----x-x-x-x-|
|-------------|-------------|-------------|----------x-x-|-----x-x-x-x-|
|-------------|-------------|-------------|----------x-x-|-9-9-x-x-x-x-|
|-------------|-------------|-------------|----------x-x-|-9-9-x-x-x-x-|
|-------------|-------------|-------------|----------x-x-|-7-7-x-x-x-x-|
|-------------|-------------|-------------|----------x-x-|-----x-x-x-x-|


  Gtr I
  E E Q E E Q   E E Q E E Q   E E Q E E E E     E E Q E E Q   E E Q E E Q
|-------------|-------------|-------x-x-x-x-||--------------|-------------|
|-------------|-------------|-------x-x-x-x-||o-------------|-------------|
|-------------|-------------|-------x-x-x-x-||--------------|-------------|
|-------6-7-6-|-------6-7-6-|-------x-x-x-x-||--------6-7-6-|-------6-7-6-|
|-----7-------|-----7-------|-----7-x-x-x-x-||o-----7-------|-----7-------|
|-7-7---------|-5-5---------|-5-5---x-x-x-x-||--0-0---------|-7-7---------|
|
| Gtr II
| Q Q E E E E   Q Q E E E E     Q Q E E E E     Q Q E E E E   Q Q E E E E
|-----x-x-x-x-|-----x-x-x-x-|-------x-x-x-x-||------x-x-x-x-|-----x-x-x-x-|
|-----x-x-x-x-|-----x-x-x-x-|-------x-x-x-x-||o-----x-x-x-x-|-----x-x-x-x-|
|-----x-x-x-x-|-----x-x-x-x-|-------x-x-x-x-||------x-x-x-x-|-4-4-x-x-x-x-|
|-9-9-x-x-x-x-|-7-7-x-x-x-x-|---7-7-x-x-x-x-||--2-2-x-x-x-x-|-4-4-x-x-x-x-|
|-9-9-x-x-x-x-|-7-7-x-x-x-x-|---7-7-x-x-x-x-||o-2-2-x-x-x-x-|-2-2-x-x-x-x-|
|-7-7-x-x-x-x-|-5-5-x-x-x-x-|---5-5-x-x-x-x-||--0-0-x-x-x-x-|-----x-x-x-x-|


    E  E      Q    E  E  Q      E  E  Q    E   E    Q
|----------------------------|---------------------------||
|----------------------------|--------------------------o||
|----------------------------|---------------------------||
|------------------6--7--6---|---------------------------||
|-------------7--------------|--------7-------------9---o||
|---5--5---------------------|--5--5-------7---7---------||
|
| Q    Q    E   E  E  E         Q  Q    E    Q    E
|-----------x---x--x--x------|--------------------x------||
|-----------x---x--x--x------|--------------------x-----o||
|-2----2----x---x--x--x------|--2--2---------4----x------||
|-2----2----x---x--x--x------|--2--2---------4----x------||
|-0----0----x---x--x--x------|--0--0---------2----x-----o||
|-----------x---x--x--x------|--------------------x------||


    Gtrs I, II
    E E Q  Q  Q   E E  Q   Q  Q   E E  Q  Q  Q    E E Q E E Q
||--------------|---------------|---------------|--------------||
||o-------------|---------------|---------------|-------------o||
||--------------|---------------|---------------|--------------||
||---------6----|----------6----|---------6-----|--------------||
||o-----7-----7-|------7------7-|------7-----7--|-----7-----9-o||
||--0-0---------|-7-7-----------|-5-5-----------|-5-5---7-7----||


  Gtr I
    E E E Q E E E    E  E Q  Q     Q    E E E  Q  E   Q    E  Q.   E E   Q
|-----------------|-------------------|-----------------|------------------|
|-----------------|-------------------|-----------------|------------------|
|-----------------|-------------------|-----------------|------------------|
|-----------------|--6--7-6-----------|-----------------|------------------|
|---------7---7---|----------9-----7--|-------11------7-|-----7----------9-|
|---0-0-0---0---0-|-------------------|-9-9-9-----5-----|--5-------7-7-----|
|
| Gtr II
| E E E Q   E Q     +Q    Q  E E E E    E E E  Q  Q.      +Q     Q E E E E
|-----------------|-------------------|-----------------|------------------|
|-----------------|-------------------|-----------------|------------------|
|-----------------|-------------------|-----------------|------------------|
|-------------4---|-(4)---4--4-4-4-4--|-6-6-6--6--2-----|-(2)----2-4-4-4-4-|
|-2-2-2-2---2-2---|-(2)---2--2-2-2-2--|-4-4-4--4--0-----|-(0)----0-2-2-2-2-|
|-0-0-0-0---0-----|-------------------|-----------------|------------------|


  E E E Q  E E E    E  E Q  Q   Q     E E E  Q  E  Q      E  Q.    E E Q
|----------------|------------------|------------------|--------------------|
|----------------|------------------|------------------|--------------------|
|----------------|------------------|------------------|--------------------|
|----------------|--6--7-6----------|------------------|--------------------|
|-------7----7---|----------9---7---|-------11-----7---|-----7---------9----|
|-0-0-0----0---0-|------------------|-9-9-9-----5------|--5--------7-7------|
|
| E E E Q  E Q     +Q    Q  E E E E   E E E  Q  Q.       +Q     Q  E E E E
|----------------|------------------|------------------|--------------------|
|----------------|------------------|------------------|--------------------|
|----------------|------------------|------------------|--------------------|
|------------4---|-(4)---4--4-4-4-4-|-6-6-6--6--2------|-(2)----2--4-4-4-4--|
|-2-2-2-2--2-2---|-(2)---2--2-2-2-2-|-4-4-4--4--0------|-(0)----0--2-2-2-2--|
|-0-0-0-0--0-----|------------------|------------------|--------------------|


                                                       1.
    Gtrs I, II
     Q Q E E E E   +Q  Q  E E E E   E E E E E E E E    E E E E E E E E
||---------------|----------------|------------------|------------------||
||o--------------|----------------|------------------|-----------------o||
||---2-2-2-2-2---|----------------|-4-4-4-4-4-4-4-4--|-4-4-4-4-4-4-4-4--||
||---2-2-2-2-2-2-|-(2)-2--2-2-2-2-|-4-4-4-4-4-4-4-4--|-4-4-4-4-4-4-4-4--||
||o--0-0-0-0-0-2-|-(2)-2--2-2-2-2-|-2-2-2-2-2-2-2-2--|-2-2-2-2-2-2-2-2-o||
||-------------0-|-(0)-0--0-0-0-0-|------------------|------------------||


  2.
  E E E E E E E E   Q  Q  E E E E   +Q   Q  E E E E   E E E E E E E E
|-----------------|---------------|-----------------|-----------------|
|-----------------|---------------|-----------------|-----------------|
|-4-4-4-4-4-4-4-4-|-2--2--2-2-2---|-----------------|-4-4-4-4-4-4-4-4-|
|-4-4-4-4-4-4-4-4-|-2--2--2-2-2-2-|-(2)--2--2-2-2-2-|-4-4-4-4-4-4-4-4-|
|-2-2-2-2-2-2-2-2-|-0--0--0-0-0-2-|-(2)--2--2-2-2-2-|-2-2-2-2-2-2-2-2-|
|-----------------|-------------0-|-(0)--0--0-0-0-0-|-----------------|


  E E E E E E E E   Q  Q  E E E E   +Q   Q  E E E E   E E E E E E E E
|-----------------|---------------|-----------------|-----------------|
|-----------------|---------------|-----------------|-----------------|
|-4-4-4-4-4-4-4-4-|-2--2--2-2-2---|-----------------|-4-4-4-4-4-4-4-4-|
|-4-4-4-4-4-4-4-4-|-2--2--2-2-2-2-|-(2)--2--2-2-2-2-|-4-4-4-4-4-4-4-4-|
|-2-2-2-2-2-2-2-2-|-0--0--0-0-0-2-|-(2)--2--2-2-2-2-|-2-2-2-2-2-2-2-2-|
|-----------------|-------------0-|-(0)--0--0-0-0-0-|-----------------|


                  Gtr II
  E E E E E E E E     Q Q E E E E   Q Q E E E E   Q Q E E E E   Q Q E  Q E
|-----------------||------x-x-x-x-|-----x-x-x-x-|-----x-x-x-x-|----------x--||
|-----------------||o-----x-x-x-x-|-----x-x-x-x-|-----x-x-x-x-|----------x-o||
|-4-4-4-4-4-4-4-4-||------x-x-x-x-|-4-4-x-x-x-x-|-2-2-x-x-x-x-|-2-2----4-x--||
|-4-4-4-4-4-4-4-4-||--2-2-x-x-x-x-|-4-4-x-x-x-x-|-2-2-x-x-x-x-|-2-2----4-x--||
|-2-2-2-2-2-2-2-2-||o-2-2-x-x-x-x-|-2-2-x-x-x-x-|-0-0-x-x-x-x-|-0-0----2-x-o||
|-----------------||--0-0-x-x-x-x-|-----x-x-x-x-|-----x-x-x-x-|----------x--||
|
|                     Gtr I
|       W             E E Q E E Q   E E Q E E Q   E E Q E E Q   E E Q. E Q
|-----------------||--------------|-------------|-------------|-------------||
|-----------------||o-------------|-------------|-------------|------------o||
|-----------------||--------------|-------------|-------------|-------------||
|-----------------||--------6-7-6-|-------6-7-6-|-------6-7-6-|-------------||
|-----------------||o-----7-------|-----7-------|-----7-------|-----7----9-o||
|-----------------||--0-0---------|-7-7---------|-5-5---------|-5-5----7----||


      Gtrs I, II
    E E Q  Q  Q    E E Q  Q  Q    E E Q  Q  Q    E E Q  E E Q
||---------------|--------------|--------------|---------------||
||o--------------|--------------|--------------|--------------o||
||---------------|--------------|--------------|---------------||
||---------6-----|--------6-----|--------6-----|---------------||
||o-----7-----7--|-----7-----7--|-----7-----7--|-----7------9-o||
||--0-0----------|-7-7----------|-5-5----------|-5-5----7-7----||


    Gtr I
  E E E Q  E E E    E  E Q  Q   Q     E E E  Q  E  Q     E  Q.    E E Q
|----------------|------------------|-----------------|-------------------|
|----------------|------------------|-----------------|-------------------|
|----------------|------------------|-----------------|-------------------|
|----------------|--6--7-6----------|-----------------|-------------------|
|-------7----7---|----------9---7---|-------11-----7--|-----7---------9---|
|-0-0-0----0---0-|------------------|-9-9-9-----5-----|--5--------7-7-----|
|
| Gtr II
| E E E Q  E Q     +Q    Q  E E E E   E E E  Q  Q.      +Q     Q  E E E E
|----------------|------------------|-----------------|-------------------|
|----------------|------------------|-----------------|-------------------|
|----------------|------------------|-----------------|-------------------|
|------------4---|-(4)---4--4-4-4-4-|-6-6-6--6--2-----|-(2)----2--4-4-4-4-|
|-2-2-2-2--2-2---|-(2)---2--2-2-2-2-|-4-4-4--4--0-----|-(0)----0--2-2-2-2-|
|-0-0-0-0--0-----|------------------|-----------------|-------------------|


  E E E Q  E E E    E  E Q  Q   Q     E E E  Q  E  Q     E  Q.    E E Q
|----------------|------------------|-----------------|-------------------|
|----------------|------------------|-----------------|-------------------|
|----------------|------------------|-----------------|-------------------|
|----------------|--6--7-6----------|-----------------|-------------------|
|-------7----7---|----------9---7---|-------11-----7--|-----7---------9---|
|-0-0-0----0---0-|------------------|-9-9-9-----5-----|--5--------7-7-----|
|
| E E E Q  E Q     +Q    Q  E E E E   E E E  Q  Q.      +Q     Q  E E E E
|----------------|------------------|-----------------|-------------------|
|----------------|------------------|-----------------|-------------------|
|----------------|------------------|-----------------|-------------------|
|------------4---|-(4)---4--4-4-4-4-|-6-6-6--6--2-----|-(2)----2--4-4-4-4-|
|-2-2-2-2--2-2---|-(2)---2--2-2-2-2-|-4-4-4--4--0-----|-(0)----0--2-2-2-2-|
|-0-0-0-0--0-----|------------------|-----------------|-------------------|


                                                        1.
    Gtrs I, II
    Q  Q  E E E E   +Q   Q  E E E E   E E E E E E E E   E E E E E E E E
||----------------|-----------------|-----------------|-------------------||
||o---------------|-----------------|-----------------|------------------o||
||--2--2--2-2-2---|-----------------|-4-4-4-4-4-4-4-4-|-4-4-4-4-4-4-4-4---||
||--2--2--2-2-2-2-|-(2)--2--2-2-2-2-|-4-4-4-4-4-4-4-4-|-4-4-4-4-4-4-4-4---||
||o-0--0--0-0-0-2-|-(2)--2--2-2-2-2-|-2-2-2-2-2-2-2-2-|-2-2-2-2-2-2-2-2--o||
||--------------0-|-(0)--0--0-0-0-0-|-----------------|-------------------||


  2.
  E E E E E E E E   Q  Q  E E E E   +Q   Q  E E E E   E E E E E E E E
|-----------------|---------------|-----------------|-----------------|
|-----------------|---------------|-----------------|-----------------|
|-4-4-4-4-4-4-4-4-|-2--2--2-2-2---|-----------------|-4-4-4-4-4-4-4-4-|
|-4-4-4-4-4-4-4-4-|-2--2--2-2-2-2-|-(2)--2--2-2-2-2-|-4-4-4-4-4-4-4-4-|
|-2-2-2-2-2-2-2-2-|-0--0--0-0-0-2-|-(2)--2--2-2-2-2-|-2-2-2-2-2-2-2-2-|
|-----------------|-------------0-|-(0)--0--0-0-0-0-|-----------------|


  E E E E E E E E   Q  Q  E E E E   +Q   Q  E E E E   E E E E E E E E
|-----------------|---------------|-----------------|-----------------|
|-----------------|---------------|-----------------|-----------------|
|-4-4-4-4-4-4-4-4-|-2--2--2-2-2---|-----------------|-4-4-4-4-4-4-4-4-|
|-4-4-4-4-4-4-4-4-|-2--2--2-2-2-2-|-(2)--2--2-2-2-2-|-4-4-4-4-4-4-4-4-|
|-2-2-2-2-2-2-2-2-|-0--0--0-0-0-2-|-(2)--2--2-2-2-2-|-2-2-2-2-2-2-2-2-|
|-----------------|-------------0-|-(0)--0--0-0-0-0-|-----------------|


                     Gtrs I, II
  E E E E E E E E    E E E Q.   E E
|-----------------||----------------|
|-----------------||----------------|
|-4-4-4-4-4-4-4-4-||-9-9-9------9-9-|
|-4-4-4-4-4-4-4-4-||-x-x-x------x-x-|
|-2-2-2-2-2-2-2-2-||-7-7-7------7-7-|
|-----------------||-------0--------|


  E E Q  E E Q    E E E Q.   E E   E E Q  E E E E
|---------------|----------------|--------x-x-x-x-|
|---------------|----------------|--------x-x-x-x-|
|-9-9----9-9----|-9-9-9------9-9-|-9-9----x-x-x-x-|
|-x-x----x-x----|-x-x-x------x-x-|-x-x----x-x-x-x-|
|-7-7----7-7----|-7-7-7------7-7-|-7-7----x-x-x-x-|
|-----0---------|-------0--------|-----0--x-x-x-x-|


  E E E Q.   E E   E E Q  E E Q    E E E Q.   E E   E E Q  E E   Q
|----------------|---------------|----------------|-----------------|
|----------------|---------------|----------------|-----------------|
|-9-9-9------9-9-|-9-9----9-9----|-9-9-9------9-9-|-9-9-------------|
|-x-x-x------x-x-|-x-x----x-x----|-x-x-x------x-x-|-x-x---------/9--|
|-7-7-7------7-7-|-7-7----7-7----|-7-7-7------7-7-|-7-7----7-7--/7--|
|-------0--------|-----0---------|-------0--------|-----0-----------|
|
| Gtr I
| W                W               W                Q   Q  Q     Q
|----------------|---------------|----------------|-----------------|
|----------------|---------------|----------------|-----------------|
|----------------|---------------|----------------|-----------------|
|----------------|---------------|----------------|-----------------|
|----------------|---------------|----------------|------------/19--|
|----------------|---------------|----------------|-----------------|


      Gtr I
    Q Q  E  E  E E   +Q   Q  Q    Q
|------------------|------------------|
|------------------|------------------|
|---9-9--9-11-11-9-|-(9)-----9---11---|
|---x-x--x--x--x-x-|------9--x----x---|
|---7-7--7--9--9-7-|-(7)--x--7----9---|
|------------------|------7-----------|
|
|     Gtr II
| Q   Q  E  E  E E   +Q   Q  E E  E E
|------------------|------------------|
|------------------|------------------|
|-2---2--2--2--2---|------------------|
|-2---2--2--2--2-2-|-(2)--2--2-2--2-2-|
|-0---0--0--0--0-2-|-(2)--2--2-2--2-2-|
|----------------0-|-(0)--0--0-0--0-0-|


   Q    Q    Q   E  E    +E   E E E E E E E
|---------------------|---------------------|
|---------------------|---------------------|
|-13---11---11---9-11-|-(11)----8---9---8---|
|--x----x----x---x--x-|------/9---9---9---9-|
|-11----9----9---7--9-|--(9)----------------|
|---------------------|---------------------|
|
|  E E  E E  E E E  E     E   E E E E E E E
|---------------------|---------------------|
|---------------------|---------------------|
|--4-4--4-4--4-4-4--4-|---4---4-4-4-4-4-4-4-|
|--4-4--4-4--4-4-4--4-|---4---4-4-4-4-4-4-4-|
|--2-2--2-2--2-2-2--2-|---2---2-2-2-2-2-2-2-|
|---------------------|---------------------|


  Gtr I
  Q  Q  E  E  E E   +Q   Q  Q    Q
|-----------------|------------------|
|-----------------|------------------|
|-9--9--9-11-11-9-|-(9)-----9---11---|
|-x--x--x--x--x-x-|------9--x----x---|
|-7--7--7--9--9-7-|-(7)--x--7----9---|
|-----------------|------7-----------|
|
| Gtr II
| Q  Q  E  E  E E   +Q   Q  E E  E E
|-----------------|------------------|
|-----------------|------------------|
|-2--2--2--2--2---|------------------|
|-2--2--2--2--2-2-|-(2)--2--2-2--2-2-|
|-0--0--0--0--0-2-|-(2)--2--2-2--2-2-|
|---------------0-|-(0)--0--0-0--0-0-|


   Q    Q    Q   E  E    +E   E E E E E  Q
|---------------------|----------------------|
|---------------------|----------------------|
|-13---11---11---9-11-|-(11)----8---9---11---|
|--x----x----x---x--x-|------/9---9---9------|
|-11----9----9---7--9-|--(9)-----------------|
|---------------------|----------------------|
|
|  E E  E E  E E E  E     E   E E E E E  E E
|---------------------|----------------------|
|---------------------|----------------------|
|--4-4--4-4--4-4-4--4-|---4---4-4-4-4-4--4-4-|
|--4-4--4-4--4-4-4--4-|---4---4-4-4-4-4--4-4-|
|--2-2--2-2--2-2-2--2-|---2---2-2-2-2-2--2-2-|
|---------------------|----------------------|


  Gtr I
                                                                 PM|   PM|
  E E  E E E  E E E   +E  E E  E  E E E E   E E E E E E E E    E E E E E E E E
|-------------------|---------------------|-----------------|------------------|
|-----10-----10-----|-------9-(9)-----9---|-----------------|------------------|
|-9-9----9-9----9-9-|-(9)-9----9--9-9---9-|-----9-----8-----|-11-----9-----8-9-|
|-------------------|---------------------|-9-9---9-9---9-9-|--9-9-9-9-9-9-9-9-|
|-------------------|---------------------|-----------------|------------------|
|-------------------|---------------------|-----------------|------------------|
|
| Gtr II
| Q    Q   E  E E E   +Q    Q     E E E E   E E E E E E E E    E E E E E E E E
|-------------------|---------------------|-----------------|------------------|
|-------------------|---------------------|-----------------|------------------|
|-2----2---2--2-2---|---------------------|-4-4-4-4-4-4-4-4-|--4-4-4-4-4-4-4-4-|
|-2----2---2--2-2-2-|-(2)---2-----2-2-2-2-|-4-4-4-4-4-4-4-4-|--4-4-4-4-4-4-4-4-|
|-0----0---0--0-0-2-|-(2)---2-----2-2-2-2-|-2-2-2-2-2-2-2-2-|--2-2-2-2-2-2-2-2-|
|-----------------0-|-(0)---0-----0-0-0-0-|-----------------|------------------|


  Gtr I
  Q  Q  E  E  E E   +Q   Q  Q    Q
|-----------------|------------------|
|-----------------|------------------|
|-9--9--9-11-11-9-|-(9)-----9---11---|
|-x--x--x--x--x-x-|------9--x----x---|
|-7--7--7--9--9-7-|-(7)--x--7----9---|
|-----------------|------7-----------|
|
| Gtr II
| Q  Q  E  E  E E   +Q   Q  E E  E E
|-----------------|------------------|
|-----------------|------------------|
|-2--2--2--2--2---|------------------|
|-2--2--2--2--2-2-|-(2)--2--2-2--2-2-|
|-0--0--0--0--0-2-|-(2)--2--2-2--2-2-|
|---------------0-|-(0)--0--0-0--0-0-|


   Q    Q    Q   E  E    +H         E  E  E  E
|---------------------|------------------------|
|---------------------|------------------------|
|-13---11---11---9-11-|-(11)-------13-14-13-11-|
|--x----x----x---x--x-|-------------x--x--x--x-|
|-11----9----9---7--9-|--(9)-------11-12-11--9-|
|---------------------|------------------------|
|
|  E E  E E  E E E  E     E  E E E  E  E  E  E
|---------------------|------------------------|
|---------------------|------------------------|
|--4-4--4-4--4-4-4--4-|---4--4-4-4--4--4--4--4-|
|--4-4--4-4--4-4-4--4-|---4--4-4-4--4--4--4--4-|
|--2-2--2-2--2-2-2--2-|---2--2-2-2--2--2--2--2-|
|---------------------|------------------------|


  Gtr I
  W                +W                 +W                 +W
|----------------|------------------|------------------|-----------------|
|----------------|------------------|------------------|-----------------|
|-9--------------|-(9)--------------|-(9)--------------|-(9)-------------|
|-x--------------|------------------|------------------|-----------------|
|-7--------------|-(7)--------------|-(7)--------------|-(7)-------------|
|-0--------------|-(0)--------------|-(0)--------------|-(0)-------------|
|
| Gtr II
| E E Q  E E Q      E  E Q  E E Q      E  E Q  E E Q      E  E Q  E E Q
|----------------|------------------|------------------|-----------------|
|----------------|------------------|------------------|-----------------|
|----------------|------------------|------------------|-----------------|
|--------6-7-6---|----------6-7-6---|----------6-7-6---|-----------------|
|-----7----------|-------7----------|-------7----------|-------7------9--|
|-0-0------------|--7--7------------|--5--5------------|--5--5----7-7----|
|
| Gtr III
| Q   Q  E E E E    Q    Q  E E E E    Q    Q  E E E E    Q    Q  Q   Q
|--------x-x-x-x-|----------x-x-x-x-|----------x-x-x-x-|-----------------|
|--------x-x-x-x-|----------x-x-x-x-|----------x-x-x-x-|-----------------|
|-9---9--x-x-x-x-|----------x-x-x-x-|----------x-x-x-x-|-----------------|
|-9---9--x-x-x-x-|--9----9--x-x-x-x-|--7----7--x-x-x-x-|--7----7--9---9--|
|-7---7--x-x-x-x-|--9----9--x-x-x-x-|--7----7--x-x-x-x-|--7----7--9---9--|
|--------x-x-x-x-|--7----7--x-x-x-x-|--5----5--x-x-x-x-|--5----5--7---7--|


  Gtr I
  E E Q  E E Q     E E Q  E E Q     E E Q  E E Q     E E Q  E E Q
|----------------|----------------|----------------|---------------|
|----------------|----------------|----------------|---------------|
|----------------|----------------|----------------|---------------|
|--------6-7-6---|--------6-7-6---|--------6-7-6---|---------------|
|-----7----------|-----7----------|-----7----------|-----7------9--|
|-0-0------------|-7-7------------|-5-5------------|-5-5----7-7----|
|
| Gtr II
| Q   Q  E E E E   Q   Q  E E E E   Q   Q  E E E E   Q   Q  Q   Q
|--------x-x-x-x-|--------x-x-x-x-|--------x-x-x-x-|---------------|
|--------x-x-x-x-|--------x-x-x-x-|--------x-x-x-x-|---------------|
|-9---9--x-x-x-x-|--------x-x-x-x-|--------x-x-x-x-|---------------|
|-9---9--x-x-x-x-|-9---9--x-x-x-x-|-7---7--x-x-x-x-|-7---7--9---9--|
|-7---7--x-x-x-x-|-9---9--x-x-x-x-|-7---7--x-x-x-x-|-7---7--9---9--|
|--------x-x-x-x-|-7---7--x-x-x-x-|-5---5--x-x-x-x-|-5---5--7---7--|


  E E Q  E E Q     E E Q  E E Q     E E Q  E E Q     E E Q  E E Q    W
|----------------|----------------|----------------|---------------|------|
|----------------|----------------|----------------|---------------|------|
|----------------|----------------|----------------|---------------|------|
|--------6-7-6---|--------6-7-6---|--------6-7-6---|---------------|------|
|-----7----------|-----7----------|-----7----------|-----7------9--|------|
|-0-0------------|-7-7------------|-5-5------------|-5-5----7-7----|------|
|
| Q   Q  E E E E   Q   Q  E E E E   Q   Q  E E E E   Q   Q  Q   Q    W
|--------x-x-x-x-|--------x-x-x-x-|--------x-x-x-x-|---------------|------|
|--------x-x-x-x-|--------x-x-x-x-|--------x-x-x-x-|---------------|------|
|-9---9--x-x-x-x-|--------x-x-x-x-|--------x-x-x-x-|---------------|------|
|-9---9--x-x-x-x-|-9---9--x-x-x-x-|-7---7--x-x-x-x-|-7---7--9---9--|------|
|-7---7--x-x-x-x-|-9---9--x-x-x-x-|-7---7--x-x-x-x-|-7---7--9---9--|------|
|--------x-x-x-x-|-7---7--x-x-x-x-|-5---5--x-x-x-x-|-5---5--7---7--|------|


                                                       1.
    Gtrs I, II
    Q  Q  E E E E   +Q   Q  E E E E   E E E E E E E E   E E E E E E E E
||----------------|-----------------|-----------------|-------------------||
||o---------------|-----------------|-----------------|------------------o||
||--2--2--2-2-2---|-----------------|-4-4-4-4-4-4-4-4-|-4-4-4-4-4-4-4-4---||
||--2--2--2-2-2-2-|-(2)--2--2-2-2-2-|-4-4-4-4-4-4-4-4-|-4-4-4-4-4-4-4-4---||
||o-0--0--0-0-0-2-|-(2)--2--2-2-2-2-|-2-2-2-2-2-2-2-2-|-2-2-2-2-2-2-2-2--o||
||--------------0-|-(0)--0--0-0-0-0-|-----------------|-------------------||


  2.
  E E E E E E E E   Q  Q  E E E E   +Q   Q  E E E E   E E E E E E E E
|-----------------|---------------|-----------------|-----------------|
|-----------------|---------------|-----------------|-----------------|
|-4-4-4-4-4-4-4-4-|-2--2--2-2-2---|-----------------|-4-4-4-4-4-4-4-4-|
|-4-4-4-4-4-4-4-4-|-2--2--2-2-2-2-|-(2)--2--2-2-2-2-|-4-4-4-4-4-4-4-4-|
|-2-2-2-2-2-2-2-2-|-0--0--0-0-0-2-|-(2)--2--2-2-2-2-|-2-2-2-2-2-2-2-2-|
|-----------------|-------------0-|-(0)--0--0-0-0-0-|-----------------|


  E E E E E E E E   Q  Q  E E E E   +Q   Q  E E E E   E E E E E E E E
|-----------------|---------------|-----------------|-----------------|
|-----------------|---------------|-----------------|-----------------|
|-4-4-4-4-4-4-4-4-|-2--2--2-2-2---|-----------------|-4-4-4-4-4-4-4-4-|
|-4-4-4-4-4-4-4-4-|-2--2--2-2-2-2-|-(2)--2--2-2-2-2-|-4-4-4-4-4-4-4-4-|
|-2-2-2-2-2-2-2-2-|-0--0--0-0-0-2-|-(2)--2--2-2-2-2-|-2-2-2-2-2-2-2-2-|
|-----------------|-------------0-|-(0)--0--0-0-0-0-|-----------------|


  E E E E E E E E   Q  Q  E E E E   +Q   Q  E E E E   E E E E E E E E
|-----------------|---------------|-----------------|-----------------|
|-----------------|---------------|-----------------|-----------------|
|-4-4-4-4-4-4-4-4-|-2--2--2-2-2---|-----------------|-4-4-4-4-4-4-4-4-|
|-4-4-4-4-4-4-4-4-|-2--2--2-2-2-2-|-(2)--2--2-2-2-2-|-4-4-4-4-4-4-4-4-|
|-2-2-2-2-2-2-2-2-|-0--0--0-0-0-2-|-(2)--2--2-2-2-2-|-2-2-2-2-2-2-2-2-|
|-----------------|-------------0-|-(0)--0--0-0-0-0-|-----------------|


                        Gtr I
  E E E E E E E E     E E Q  E E Q
|-----------------||-----------------|
|-----------------||o----------------|
|-4-4-4-4-4-4-4-4-||-----------------|
|-4-4-4-4-4-4-4-4-||---------6-7-6---|
|-2-2-2-2-2-2-2-2-||o-----7----------|
|-----------------||--0-0------------|
|
|                       Gtr II
| W                   Q   Q  E E E E
|-----------------||---------x-x-x-x-|
|-----------------||o--------x-x-x-x-|
|-----------------||---------x-x-x-x-|
|-----------------||--2---2--x-x-x-x-|
|-----------------||o-2---2--x-x-x-x-|
|-----------------||--0---0--x-x-x-x-|


  E E Q  E E Q     E E Q  E E Q     E E Q.    E Q
|----------------|----------------|------------------||
|----------------|----------------|-----------------o||
|----------------|----------------|------------------||
|--------6-7-6---|--------6-7-6---|------------------||
|-----7----------|-----7----------|-----7-------9---o||
|-7-7------------|-5-5------------|-5-5-------7------||
|
| Q   Q  E E E E   Q   Q  E E E E   Q   Q   E Q   E
|--------x-x-x-x-|--------x-x-x-x-|---------------x--||
|--------x-x-x-x-|--------x-x-x-x-|---------------x-o||
|-4---4--x-x-x-x-|-2---2--x-x-x-x-|-2---2-----4---x--||
|-4---4--x-x-x-x-|-2---2--x-x-x-x-|-2---2-----4---x--||
|-2---2--x-x-x-x-|-0---0--x-x-x-x-|-0---0-----2---x-o||
|--------x-x-x-x-|--------x-x-x-x-|---------------x--||


  Q      Q        H
|----------------------*|
|----------------------*|
|----------------------*|
|-2------2-------------*|
|-2------2-------------*|
|-0------0-------------*|



Duration Legend
---------------
W - whole; H - half; Q - quarter; E - 8th; S - 16th; T - 32nd; X - 64th; a - acciaccatura
+ - note tied to previous; . - note dotted; .. - note double dotted
Uncapitalized letters represent notes that are staccato (1/2 duration)
Irregular groupings are notated above the duration line
Duration letters will always appear directly above the note/fret number it represents the
duration for.  Duration letters with no fret number below them represent rests.  Multi-
bar rests are notated in the form Wxn, where n is the number of bars to rest for.  Low
melody durations appear below the staff

Tablature Legend
----------------
 h   - hammer-on
 p   - pull-off
 b   - bend
 pb  - pre-bend
 r   - bend release (if no number after the r, then release immediately)
 /\  - slide into or out of (from/to "nowhere")
 s   - legato slide
 S   - shift slide
 - natural harmonic
[n]  - artificial harmonic
n(n) - tapped harmonic
 ~   - vibrato
 tr  - trill
 T   - tap
 TP  - trem. picking
 PM  - palm muting
\n/  - tremolo bar dip; n = amount to dip
 \n  - tremolo bar down
 n/  - tremolo bar up
/n\  - tremolo bar inverted dip
 =   - hold bend; also acts as connecting device for hammers/pulls
 <> - volume swell (louder/softer)
 x   - on rhythm slash represents muted slash
 o   - on rhythm slash represents single note slash

            
            
Suggest correction
Creating personal tab
Creating personal tab
You can edit any tab online and save it as your Personal.

You can edit, replace or remove any tab part or add personal notes – all changes will be seen only by you.

Personal tabs can be accessed anytime from any device, even offline.
Learn more »
comments
print report bad tab
4 comments total. Showing first comments.
0 reply
Charmedavril999 10 Jul 31, 2007 09:58 AM

it would be easier to understand if you separated the verses, chorus, etc.

0 reply
AvAaron182 87 Jul 31, 2007 02:44 PM

and in the verse, both guitars are not playing the same thing
watch it live
deryck plays something different while brown tom plays the lead

0 reply
PunkKid_19 76 Aug 05, 2007 04:16 PM

way to confusing but pretty good tab other than that

guest
Wanna post a correction for this tab? Suggest correction