Oops, an error
Loading. Please wait.

War tab

version 1
version 1

Whole song

  • Great new song from Sum 41.
  • The other versions are in standard tuning but the ... Show more
  • Acoustic live version with strumming patterns http... Show more

Interactive

by Sum 41
8,569 views 51 this week
1 commentread comment
1 2 3 4 5
x 11
add to favorites
×
Save as Personal and add changes to this tab that will be seen only by you. Learn more ›
×
You can save this tab as Personal to edit and correct it or add notes. All changes will be seen only by you. Learn more »
launch autoscroll
font size
0
reset
how to read this tab
guitar tuner
edit
Autoscroll
slow
fast
+/-
esc
set tempo
stop
Author
Difficulty
About this tab version
Great new song from Sum 41. Was this info helpful? Yes No
Tuning: E Standard Sum 41 - War (13 Voices) 


e|--6--6--6--6--6--6--6--6--2--2--2--2--2--2--2--2---------------|
B|--7--7--7--7--7--7--7--7--2--2--2--2--2--2--2--2---------------|
G|--8--8--8--8--8--8--8--8--3--3--3--3--3--3--3--3---------------|
D|---------------------------------------------------------------|
A|---------------------------------------------------------------|
E|---------------------------------------------------------------|

e|--4--4--4--4--4--4--4--4--4--4--4--4--4--4--4--4---------------|
B|--6--6--6--6--6--6--6--6--4--4--4--4--4--4--4--4---------------|
G|--6--6--6--6--6--6--6--6--5--5--5--5--5--5--5--5---------------|
D|---------------------------------------------------------------|
A|---------------------------------------------------------------|
E|---------------------------------------------------------------|


[Pre-Chorus]

(Strum each chord once)
e|---------------------------------------------------------------|
B|---------------------------------------------------------------|
G|--4-----------------6------------------------------------------|
D|--4-----------------6---8--------------------------------------|
A|--2-----------------4---8--------------------------------------|
E|------------------------6--------------------------------------|


[Chorus]

(Play each chord around 10 times)
e|---------------------------------------------------------------|
B|---------------------------------------------------------------|
G|----8-------4--------------------------------------------------|
D|----8---4---4-----8--------------------------------------------|
A|----6---4---6-----8--------------------------------------------|
E|--------2---------6--------------------------------------------|

e|--6--6--6--6--6--6--6--6--2--2--2--2--2--2--2--2---------------|
B|--7--7--7--7--7--7--7--7--2--2--2--2--2--2--2--2---------------|
G|--8--8--8--8--8--8--8--8--3--3--3--3--3--3--3--3---------------|
D|---------------------------------------------------------------|
A|---------------------------------------------------------------|
E|---------------------------------------------------------------|

e|--4--4--4--4--4--4--4--4--4--4--4--4--4--4--4--4---------------|
B|--6--6--6--6--6--6--6--6--4--4--4--4--4--4--4--4---------------|
G|--6--6--6--6--6--6--6--6--5--5--5--5--5--5--5--5---------------|
D|---------------------------------------------------------------|
A|---------------------------------------------------------------|
E|---------------------------------------------------------------|


[Pre-Chorus]

(Strum each chord once)
e|---------------------------------------------------------------|
B|---------------------------------------------------------------|
G|--4-----------------6------------------------------------------|
D|--4-----------------6---8--------------------------------------|
A|--2-----------------4---8--------------------------------------|
E|------------------------6--------------------------------------|


[Chorus]

(Play each chord around 10 times)
e|---------------------------------------------------------------|
B|---------------------------------------------------------------|
G|----8-------4--------------------------------------------------|
D|----8---4---4-----8--------------------------------------------|
A|----6---4---6-----8--------------------------------------------|
E|--------2---------6--------------------------------------------|


[Solo/Bridge]

e|---------------------------------------------------------------|
B|---------------------------------------------------------------|
G|----8--8--8--11-11-10-10--6--6--6--6---------------------------|
D|----x--x--x--x--x--x--x---x--x--x--x---------------------------|
A|----6--6--6--9--9--8--8---4--4--4--4---------------------------|
E|---------------------------------------------------------------|

e|---------------------------------------------------------------|
B|---------------------------------------------------------------|
G|--11-11-10-10--10-10-10-11-11-13-13----------------------------|
D|---x--x--x--x--x--x--x--x--x--x--x-----------------------------|
A|---9--9--8--8--8--8--8--9--9--11-11----------------------------|
E|---------------------------------------------------------------|

Play Last Chord 8 times
e|---------------------------------------------------------------|
B|---------------------------------------------------------------|
G|----15---------------------------------------------------------|
D|-----x---------------------------------------------------------|
A|----13---------------------------------------------------------|
E|---------------------------------------------------------------|



************************************

| x  Dead note

************************************

            
            
Suggest correction
Creating personal tab
Creating personal tab
You can edit any tab online and save it as your Personal.

You can edit, replace or remove any tab part or add personal notes – all changes will be seen only by you.

Personal tabs can be accessed anytime from any device, even offline.
Learn more »
comments
print report bad tab
1 comment total.
0 reply
jeeyeef 16 Oct 15, 2016 11:30 AM

sounds good but it's not what brownsound plays

guest
You may want to rate the tab now too:
select rating
Wanna post a correction for this tab? Suggest correction