Oops, an error
Loading. Please wait.
We have an official With Me tab made by UG professional guitarists. Check out the tab »
×
by Sum 41
568 views 1 this week
2 commentsread comments
1 2 3 4 5
2 more votes to show rating
add to favorites
×
Save as Personal and add changes to this tab that will be seen only by you. Learn more ›
×
You can save this tab as Personal to edit and correct it or add notes. All changes will be seen only by you. Learn more »
launch autoscroll
font size
0
reset
guitar tuner
backing track
0:00
0:00
edit
Autoscroll
slow
fast
+/-
esc
set tempo
stop
Hi there! hope you like this bass tab of With me. (^_^)...


With Me-Sum 41

Drop D tuning


Intro(No Bass)


I.Verse-Chorus
G|-------------------------------------|
D|-------------------------------------|
A|----------22-2-22--44-4-44--00-0-00--|
E|--22-2-2-----------------------------|x2

G|--------------------------------------||-----------------------------------------|
D|--------------------------------------||-----------------------------------------|
A|--44-4-44--00-0-00-----------22-2-22--||--44444444-00000000------------22222222--|
E|--------------------22-2-22-----------||---------------------22222222------------|x2

End of Chorus
G|-------------------------|
D|-------------------------|
A|--44444444-00000000------|
E|---------------------2~--|


II.Verse-Chorus
G|--------------------------------------|
D|--------------------------------------|
A|-----------22-2-22--44-4-44--00-0-00--|
E|--22-2-22-----------------------------|

G|--------------------------------------||-----------------------------------------|
D|--------------------------------------||-----------------------------------------|
A|--44-4-44--00-0-00-----------22-2-22--||--44444444-00000000------------22222222--|
E|--------------------22-2-22-----------||---------------------22222222------------|x2


Bridge
G|-------------------------------------------------------------------------------------
D|-------------------------------------------------------------------------------------
A|--------00-0-00-----------22-2-22--4444--2-2-2--000000----------222222--4444--2-2-2--
E|--2222-----------22-2-22--------------------------------222222-----------------------

G|------------------------------------------------------------------------------------|
D|------------------------------------------------------------------------------------|
A|--00-0-00-----------22-2-22--4444--2-2-2--000000-----------22-2-22--4444--2-4-2-----|
E|-----------22-2-22--------------------------------22-2-22------------------------2~-|


Verse(No Bass)


Chorus
G|----------------------------------------------------------------------------------------------|
D|----------------------------------------------------------------------------------------------|
A|--44444444-00000000------------222222--44444444--00000000-----------222222--4444444--0000000--|
E|---------------------22222222------------------------------2222222----------------------------|

End
G|-------|
D|-------|
A|-------|
E|--2~~--|


            
            
Suggest correction
Creating personal tab
Creating personal tab
You can edit any tab online and save it as your Personal.

You can edit, replace or remove any tab part or add personal notes – all changes will be seen only by you.

Personal tabs can be accessed anytime from any device, even offline.
Learn more »
Give kudos to tab author, rate the tab!
1 2 3 4 5
comments
print report bad tab
2 comments total.
+1 reply
HH_Emo_666 242 Apr 22, 2013 04:28 PM

Why would you tab this in drop d tuning if you dont even need the Low D note?

0 reply
dweo20 72 Apr 24, 2013 09:51 PM

i knew it! i'm sorry, I tried to cancel it before it was released but it was too late sorry for the inconvenience.

guest
You may want to rate the tab now too:
select rating
Wanna post a correction for this tab? Suggest correction