Oops, an error
Loading. Please wait.

Crying In My Sleep tab

153 views 1 this week
no commentswrite comment
1 2 3 4 5
3 more votes to show rating
add to favorites
×
Save as Personal and add changes to this tab that will be seen only by you. Learn more ›
×
You can save this tab as Personal to edit and correct it or add notes. All changes will be seen only by you. Learn more »
launch autoscroll
font size
0
reset
how to read this tab
guitar tuner
edit
Autoscroll
slow
fast
+/-
esc
set tempo
stop
Author
The song is in the key of G.

Lyrics and music by:

Artist: Summer Twins
Album: The Good Things EP
http://summertwinsmusic.com/

Chords used: G B Bm C D Gsus4 Em Emsus4

Main chord charts:
G barre  B barre   Bm barre  C barre   D barre   Em barre
-------  --------  --------  --------  -------   --------
e:---    e:---     e:---     e:---     e:---     e:---|
B:---    B:---     B:---     B:---     B:---     B:---|
G:-4-    G:-8-     G:-4-     G:-5-     G:-7-     G:-9-|
D:-5-    D:-9-     D:-4-     D:-5-     D:-7-     D:-9-|
A:---    A:---     A:2--     A:3--     A:5--     A:7--|
E:3--    E:7--     E:---     E:---     E:---     E:---|

Intro:
Rhythm Pattern 1 (x2)
----------------
G barre (x4) C barre (x1)
G barre (x4) D barre (x1)

Lead Pattern 1 (x8) [G triad to Gsus4 triad] w/ Rhythm Pattern 1 (x4)
-------------------|
e:7-----7---8------|
B:--8-----8---9----|
G:----7---------7--|
D:-----------------|
A:-----------------|
E:-----------------|

Verse 1:
---------
"Crying in my sleep...wake up feeling empty for nothing"
Rhythm Pattern 1 (x4)
Lead Pattern 1 (x8)

"Imagine all this...feel right at night"
Rhythm Pattern 2 (x4)
--------------------
Em barre (x4) B barre (x1)

Lead Pattern 2 (x4) [Em triad to Emsus4 triad w/ Rhythm Pattern 2]
-------------------|
e:7-----7---8------|
B:--8-----8---8----|
G:----9---------9--|
D:-----------------|
A:-----------------|
E:-----------------|

Rhythm Pattern 1 (x2)
Solo 1
---------------------------------------|
e:----------------------3~-3/5\3/5/7~--|
B:8-7-------------------3~-3/5\3/5/8~--|
G:----7~-5-5b7-4~-5-5b7----------------|
D:-------------------------------------|
A:-------------------------------------|
E:-------------------------------------|

Verse 2:
---------
"Crying in my dreams...wake up feeling hungry for something"
Rhythm Pattern 1 (x2)
Lead Pattern 1 (x4)

"Imagine all this...feel right at night"
Rhythm Pattern 2 (x4)
Lead Pattern 2 (x4)

Breakdown:
---------

Rhythm Pattern 3 (x2)
----------------
G barre (x1) Bm barre (x1) D barre (x2)


Lead into Lead Pattern 3 (x2) (w/ Rhythm Pattern 3)
------------------------
e:---------10~~-|
B:12~~----------|
G:-----11~~-----|
D:--------------|
A:--------------|
E:--------------|

Lead Pattern 3 (x8) [w/ Rhythm Pattern 3 (x8)]
-----------------------------------
e:(10)-----(10)------9--------9-------|
B:----12-------12-----10---10--10-----|
G:------11-------11-----11-------11---|
D:------------------------------------|
A:------------------------------------|
E:------------------------------------|

Solo 2 (w/ Rhythm Pattern 3; chords strummed)
------------------------------------------------------------------------------------|
e:7-5-------5-7-5-------5-7-5-------5-9-5-------5-7-5-------5-7-5--------0---0------|
B:----7-5-7-------7-5-7-------7-5-7-------7-5-7-------7-5-7-------7-5~-2---2--------|
G:----------------------------------------------------------------------------4-2~--|
D:----------------------------------------------------------------------------------|
A:----------------------------------------------------------------------------------|
E:----------------------------------------------------------------------------------|
         (pull-off)
e:----------/P\---------------------------------5-3------5--5----|
B:--3--3--5-5b 3--3------------------------3--3-----5-/7---7--7~-|
G:/4--4----------4--4-2-4-------------2~-/4--4-------------------|
D:------------------------2-4-----2-4----------------------------|
A:----------------------------2-5--------------------------------|
E:---------------------------------------------------------------|

e:9~-9-10-10~-10-9-9~-9-7-7~--9~-9-10-10~-10-14-14~------14~-|
B:7~-7--7--7~--7-7-7~-7-7-7~--7~-7--7--7~--7-14-14~------14~-|
G:-------------------------------------------------16-16-----|
D:-----------------------------------------------------------|
A:-----------------------------------------------------------|
E:-----------------------------------------------------------|

e:9~-9-10-10~-10-9-9~-9-7-7~--9~-9-10-10~-10-|
B:7~-7--7--7~--7-7-7~-7-7-7~--7~-7--7--7~--7-|
G:-------------------------------------------|
D:-------------------------------------------|
A:-------------------------------------------|
E:-------------------------------------------|

Outro:

Rhythm
e:---------------------|
B:---------------------|
G:---------------------|
D:--7---7---7----------|
A:9---9---9---9-10-9---|
E:---------------------|

Lead
e:--5---5---5----------|
B:7---7---7---7-8-7----|
G:---------------------|
D:---------------------|
A:---------------------|
E:---------------------|

Sorry if I didn't get the solo (#2) 100%; difficult to hear on the track.
Thanks for viewing.
----------------------------------------------
migsvee
Riverside, CA

            
            
Suggest correction
Creating personal tab
Creating personal tab
You can edit any tab online and save it as your Personal.

You can edit, replace or remove any tab part or add personal notes – all changes will be seen only by you.

Personal tabs can be accessed anytime from any device, even offline.
Learn more »
Give kudos to tab author, rate the tab!
1 2 3 4 5
comments
print report bad tab
guest
You may want to rate the tab now too:
select rating
Wanna post a correction for this tab? Suggest correction