Oops, an error
Loading. Please wait.

Forget Me tab

1,200 views 6 this week
1 commentread comment
1 2 3 4 5
x 3
add to favorites
×
Save as Personal and add changes to this tab that will be seen only by you. Learn more ›
×
You can save this tab as Personal to edit and correct it or add notes. All changes will be seen only by you. Learn more »
launch autoscroll
font size
0
reset
how to read this tab
guitar tuner
edit
Autoscroll
slow
fast
+/-
esc
set tempo
stop
Author
-------------------------------------------------------------------------------
                             FORGET ME - Summer Twins
-------------------------------------------------------------------------------
Tabbed by: migsvee

Lyrics and music by:

Artist: Summer Twins
Album: Forget Me EP
http://summertwins.bandcamp.com/ 

Tuning: Standard

Chords used: C D E5 Em G G5
The magic number in the song is four... you'll see.

Intro (x4)
==========
Rhythm 
G5 (x8) E5 (x4)

Lead       (tremolo)
e|12-------------------------------------------------------------------------|
B|---12----------------------------------------------------------------------|
G|-------12\(-1)/------------------------------------------------------------|
D|---------------------------------------------------------------------------|
A|---------------------------------------------------------------------------|
E|---------------------------------------------------------------------------|

Post-intro (x4)
==============
Rhythm 2
G (x4) Em  (x4)
(Strumming pattern: Down on the bass note only, Down-Up, Down)

Solo (Note: muted note here optional; can play the B note if you like {that's 12th fret, B string})
e|---10----12-10------------------10---12-10---------------------------------|
B|----X----------12-10-------------X---------12-10---10----------------------|
G|12-12-12-------------12~-9~--12-12-12------------12--12-9~------9~---------|
D|-------------------------------------------------------------12------------|
A|---------------------------------------------------------------------------|
E|---------------------------------------------------------------------------|

e|---10-----14-12~-10-12-10--------------10----12-10-------------------------|
B|----X-12~-----------------12-10---------X----------12-10-------------------|
G|12-12---------------------------12~-12-12-12-------------12~-9~------------|
D|---------------------------------------------------------------------------|
A|---------------------------------------------------------------------------|
E|---------------------------------------------------------------------------|

"When I first met you I knew...Little did I know"
=================================================
Rhythm 2 (x4)

Pre-Chorus: "You let yourself go...:
====================================
Rhythm 3 (x4)
G (x1) Em(x1)

Lead Lick
e|---10----12-10------------------10---12-10---------------------------------|
B|----X----------12-10-------------X---------12-10---10----------------------|
G|12-12-12-------------12~-9~--12-12-12------------12----12-9~----9~---------|
D|-------------------------------------------------------------12------------|
A|---------------------------------------------------------------------------|
E|---------------------------------------------------------------------------|

"I guess my kisses weren't enough...you let yourself go"
========================================================
Rhythm 2 (x4)
Rhythm 3 (x4)

Chorus: "You say you want to love...I'm trying to forget you so forget me"
==========================================================================
Rhythm 4 (x4)
C (x4) D (x4) G (x4) Em (x4)

Intermediate
============
Rhythm 5 (x2) [Strumming pattern: Down-Up-Down-Up,Up-Down-Up]
G5 (x24) E5 (x24)

Lead
e|7-----7--------------------------------------------------------------------|
B|--8-----8------------------------------------------------------------------|
G|----9-----9~---------------------------------------------------------------|
D|---------------------------------------------------------------------------|
A|---------------------------------------------------------------------------|
E|---------------------------------------------------------------------------|

Chorus
======
Rhythm 4
Chords arpeggiated (x2)
Chords strummed (x4)

Outro
=====
Same as intro!

Thanks for viewing.
----------------------------------------------
migsvee
Riverside, CA

************************************

| /   slide up
| \   slide down
| h   hammer-on
| p   pull-off
| ~   vibrato
| +   harmonic
| x   Mute note
| b   Bend
| pb  Pre-bend
| br  Bend release
| pbr Pre-bend release
| brb Bend release bend

************************************

            
            
Suggest correction
Creating personal tab
Creating personal tab
You can edit any tab online and save it as your Personal.

You can edit, replace or remove any tab part or add personal notes – all changes will be seen only by you.

Personal tabs can be accessed anytime from any device, even offline.
Learn more »
Give kudos to tab author, rate the tab!
1 2 3 4 5
comments
print report bad tab
1 comment total.
0 reply
fyking 47 Oct 30, 2015 03:16 PM

The post-intro bit is actually not quite right. If you look at this video you can see she plays it starting at the 12th fret. https://www.youtube.com/watch?v=pzREfOX62f4

It should look something like this:

e|----------12-------------------------------12-------------------------------|
B|----15-12----15-12-------------------15-12----15-12-------------------------|
G|12--12-------------14-12~--------12--12-------------14-12-14-12-------------|
D|-------------------------14~------------------------------------14-12-14----|
A|----------------------------------------------------------------------------|
E|----------------------------------------------------------------------------|

e|----------14-12-10-12-10----------------------12----------------------------|
B|----15-12----------------12-10----------15-12----15-12----------------------|
G|12--12-------------------------10---12--12-------------14-12~---------------|
D|-------------------------------------------------------------14~------------|
A|----------------------------------------------------------------------------|
E|----------------------------------------------------------------------------|


The other parts of the song probably follow a similar pattern, haven't tabbed those out yet though.

guest
You may want to rate the tab now too:
select rating
Wanna post a correction for this tab? Suggest correction