Oops, an error
Loading. Please wait.

Buried Near The Living Dead tab

version 1
version 1

Whole song

654 views 1 this week
no commentswrite comment
1 2 3 4 5
3 more votes to show rating
add to favorites
×
Save as Personal and add changes to this tab that will be seen only by you. Learn more ›
×
You can save this tab as Personal to edit and correct it or add notes. All changes will be seen only by you. Learn more »
launch autoscroll
font size
0
reset
how to read this tab
guitar tuner
edit
Autoscroll
slow
fast
+/-
esc
set tempo
stop
This song has so many riffs that I couldn't really identify
whats chorus, verse, and so on. It is all in Drop D tuning,Here it is!

|------------------------------------------------------|
|------------------------------------------------------|
|-----------------------------------------------(x2)---|
|----------7-5-----8-7-----7-5---------7-5----5--7--8--|
|--8----5-------5-------5------5----3-------5----------|
|------------------------------------------------------|

------------------------|
------------------------|
--0-0-0-0-0-0-0-------0-|
--0-0-0-0-0-0-0-------0-|
--0-0-0-0-0-0-0-------0-|
                      .

6 times
|------------------------------------------------------|
|------------------------------------------------------|
|------------------------------------------------------|
|---------------------------------8---7---8---7---5---3|
|------5----5---8---3---8---5--------------------------|
|--00-----0---0---0---0---0---00----0---0---0---0---0--|
   ..     .   .   .   .   .   ..    .   .   .   .   .


3 times                                       end of 3rd time
|----------------------------------------------------|----|
|----------------------------------------------------|----|
|----------------------------------------------------|----|
|---00--00--00--00--00--00--00--00--00--00---000-----|--0-|
|---00--00--00--00--00--00--00--00--00--00---000-----|--0-|
|---00--00--00--00--00--00--00--00--00--00---000-----|--0-|
    ..  ..  ..  .   .   ..  ..  ..  ..  ..   ...        .

tremelo pick intro according to rythym first 2 times,
then play the normal intro 2 times.
|------------------------------------------------------|
|------------------------------------------------------|
|------------------------------------------------------|
|----------7-5-----8-7-----7-5---------7-5----5--7--8--|
|--8----5-------5-------5------5----3-------5----------|
|------------------------------------------------------|

play this the end of the second time of the normal intro
---------------------|
---------------------|
---------------------|
----------------8---7|
--0-0-0-0-0----------|
  . . . . .


4 times
|------------------------------------------------------|
|------------------------------------------------------|
|------------------------------------------------------|
|------------------------------------------------------|
|-----5-3-5------8-7-8-----5-3-5-----8p7--------7p5----|
|-000-------000--------000-------666---------555-------|
  ...       ...        ...       ...         ...

2 times
|-----------------------------------------------------------------------|
|-----------------------------------------------------------------------|
|-----------------------------------------------------------------------|
|--10-10--10--10---8--8---8---8---0--0---0-0-----7-5-3--5-3-2--3-2-0--7-|
|--8--8---8---8----5--5---5---5---0--0---0-0----------------------------|
|--8--8---8---8----5--5---5---5---0--0---0-0----------------------------|

---------------------------------------------------------------------------|
---------------------------------------------------------------------------|
---------------------------------------------------------------------------|
---10-10--10--10----12--12---12---12---------------------------------------|
----8--8---8---8----10--10---10---10---------------------------------------|
----8--8---8---8----10--10---10---10--0-000-0---000-0--000-0-000-000-00----|
                                      . ... .   ... .  ... . ... ... ..

4 times
|------------------------------------------------------------------------|
|------------------------------------------------------------------------|
|---<8>------<8>----------------<8>------<8>-----------------------------|
|-------------------------------------------------------------2-3--0-0---|
|-------------------------------------------------------------2-3--0-0---|
|-------000------000-000-000-000-----000-----000-000-000-000--2-3--0-0---|
        ...      ... ... ... ...     ...     ... ... ... ...  . .  . .

end of fourth
-----------|
-----------|
-----------|
-0--0----0-|
-0--0----0-|
-0--0----0-|
 .  .    .

twice
|------------------------------------------------------------|
|------------------------------------------------------------|
|------------------------------3----3------------------------|
|------0-----0-----0-0-0-0-----3----3-----7-5-3--5-3-2--3-2-0|
|------0-----0-----0-0-0-0-----1----1------------------------|
|--00--0--0--0--0--0-0-0-0--00----0---0----------------------|
   ..     .     .           ..    .   .

end of 2nd
-------------|
-------------|
-------------|
-0-0-0-0-0---|
-0-0-0-0-0---|
-0-0-0-0-0---|

play this once and then tremelo it twice according to rythym
and then play this part below twice and second time end on this
|------------------------------------------------------|------|
|------------------------------------------------------|------|
|------------------------------------------------------|------|
|----------7-5-----8-7-----7-5---------7-5----5--7--8--|------|
|--8----5-------5-------5------5----3-------5----------|-8--7-|
|------------------------------------------------------|------|

the end is this, Play 5 times.
|--------------------------------------------------------|
|--------------------------------------------------------|
|--------------------------------------------------------|
|--------------------------------------------------------|
|----------------765765----------------------765765765765|
|--5--3----5--3---------5--3----5--3----5--3-------------|
   .  .    .  .         .  .    .  .    .  .
end of 5th time
-----------------------------------------|
-----------------------------------------|
-----------------------------------------|
--------------------------------3-----0--|
--------------------------------3-----0--|
--5--3---5--3---5--3---5--3---5-3-5-5-0--|
  .  .   .  .   .  .   .  .   .   . . .
Comments, e-mail me @haymaker66669@aim.com

            
            
Suggest correction
Creating personal tab
Creating personal tab
You can edit any tab online and save it as your Personal.

You can edit, replace or remove any tab part or add personal notes – all changes will be seen only by you.

Personal tabs can be accessed anytime from any device, even offline.
Learn more »
Give kudos to tab author, rate the tab!
1 2 3 4 5
comments
print report bad tab
guest
Wanna post a correction for this tab? Suggest correction