Oops, an error
Loading. Please wait.

I Know Its Pathetic But That Was The Greatest Night Of My Life tab

1,486 views 9 this week
2 commentsread comments
1 2 3 4 5
x 6
add to favorites
×
Save as Personal and add changes to this tab that will be seen only by you. Learn more ›
×
You can save this tab as Personal to edit and correct it or add notes. All changes will be seen only by you. Learn more »
launch autoscroll
font size
0
reset
how to read this tab
guitar tuner
edit
Autoscroll
slow
fast
+/-
esc
set tempo
stop
-------------------------------------------------------------------------------
 I Know It's Pathetic But That Was the Greatest Night of My Life - Sun Kil Moon
-------------------------------------------------------------------------------

Tabbed by: ivadell
E-mail: sadstyle36@hotmail.com

Tuning: DADGAD (Capo 3)



D|---------0--------------------0-------------------0----------------0--------|
A|-----3-------3------------3-------------------3----------------3------------|
G|-------2---0----------0-----0------------0------0----------0-----0----------|
D|--3---------------------2------------------0-----------------2--------------|
A|-------------------3-------------------------------------3------------------|
D|--------------------------------------3-------------------------------------|


D|------------0--------------0---------------0----------------0---------------|
A|--------3--------------3---------------3----------------3-------------------|
G|----0-----0--------0-----0---------0-----0----------0-----0-----------------|
D|------2--------------0---------------0----------------2---------------------|
A|--0--------------2--------------------------------3-------------------------|
D|---------------------------------3------------------------------------------|

            
            
Suggest correction
Creating personal tab
Creating personal tab
You can edit any tab online and save it as your Personal.

You can edit, replace or remove any tab part or add personal notes – all changes will be seen only by you.

Personal tabs can be accessed anytime from any device, even offline.
Learn more »
comments
print report bad tab
2 comments total.
0 reply
amr00ps 31 Nov 20, 2017 01:23 PM

This is it, Great tab

+1 reply
amr00ps 31 Nov 20, 2017 01:23 PM

It was backstage in Moscow late one night
We shared a cigarette, a kiss goodbye
Her name was Cayenne, so young and soft
Her hands trembled badly, her eyes trailed off
To bottles and objects around the room
My backup guitar, a tray of food

We didn't have very much to say
She said that she'd come from some other place
A town called Troyskirt, maybe Troysworth
I was pretty distracted packing my stuff
But I did make a point to ask her to stay
But she said she had friends that she had to go see

Later that summer I picked up my mail
She sent me a letter with a touching detail
"I used up my minutes calling hotels
To find you that night but to no avail"
"I know it's pathetic," she continued to write,
"But that was the greatest night of my life."

guest
You may want to rate the tab now too:
select rating
Wanna post a correction for this tab? Suggest correction