Oops, an error
Loading. Please wait.

River Flows In You tab

version 2
version 2

Whole song

Video

1,598,160 views 6,975 this week
46 commentsread comments
1 2 3 4 5
x 420
add to favorites
×
Save as Personal and add changes to this tab that will be seen only by you. Learn more ›
×
You can save this tab as Personal to edit and correct it or add notes. All changes will be seen only by you. Learn more »
launch autoscroll
font size
0
reset
how to read this tab
guitar tuner
edit
Autoscroll
slow
fast
+/-
esc
set tempo
stop
[Verse]

e|--3--2--3--2-|-3-----3---------|--------3--2--3--2-|-3-----3--------|
B|--------3----|----3-----1--(1)-|----0---------3----|----3-----1-----|
G|-----0-----0-|----0------------|-0---------0-----0-|----0-----------| 
D|--2----------|-----------------|--------2----------|----------------|
A|-------------|-3---------------|-------------------|-3--------------|
E|-------------|-----------------|-------------------|----------------|

e|-----------3--2--3-|------2--3--------3-|----------------|----------|
B|--(1)---0--------3-|---3-----3------3---|-----1--------1-|--3--0----|
G|------0-------0----|------0-------0-----|---0-----3h4----|--0-----2-|
D|-----------2-------|-2------------------|----------------|--0-------|
A|-------------------|------------3-------|-3--------------|----------|
E|-------------------|--------------------|---------3------|----------|

e|----------------|--------------|--------------|--------------|
B|----------------|---------0----|----0h1--3----|----1--0------|
G|-----0-----0----|----0h2-------|-0--0---------|-0--------2---|
D|--0-----4-------|-2----------2-|----2-------0-|------------0-|
A|--------------2-|---------3----|--------------|--------------|
E|-----------0----|--------------|---------3----|--------------|

e|-----3--2--3-|------2--3--------3-|----------------|-----7--5----5-|
B|-----------3-|---3-----3------3---|-----1--------1-|--3----------3-|
G|--------0----|------0-------0-----|---0-----3h4----|--0------------|
D|--4--2-------|-2------------------|----------------|--0-----0--0---|
A|-------------|------------3-------|-3--------------|---------------|
E|-------------|--------------------|---------3------|---------------|

e|--7--5--3--2--3----|--------------|---------------|-----------------|
B|-------------------|---------0----|----0--1--3----|---1--0----------|
G|-------------------|-0--0h2--0----|-0--0----------|-0-------2-----2-|
D|-----------------2-|------------2-|----2--------0-|---------0--0----|
A|-------------------|---------3----|---------------|-----------------|
E|--------------0----|--------------|----------3----|-----------------|


[Chorus]

e|--3h5--3--2--3----------|-3h5--3--2--3----------|
B|-------------------3----|-3----------------3----|
G|-------------------0----|---------------0-------|
D|----------------2-------|------------2--------2-|
A|------------------------|-----------------------|
E|-------------0--------0-|-----------------------|

e|--3h5--3--2--3--5--7--8|-10--7-----------------|
B|--3--------------------|--------10--8--7-------|
G|-----------------------|------------------7----|
D|-----------------------|---------------0-----0-|
A|-----------------------|-----------------------|
E|-------------3---------|-----------------------|

e|--(3)3h5--3--2--3----------|-(3)3h5--3--2--3----------|
B|----------------------3----|----3----------------3----|
G|----------------------0----|------------------0-------|
D|-------------------2-------|---------------2--------2-|
A|---------------------------|--------------------------|
E|----------------0--------0-|--------------------------|

e|--(3)3h5--3--2--3--5--7--8|-10--7-----------------|-------|
B|----3---------------------|--------10--8--7-------|-------|
G|--------------------------|------------------7----|-------|
D|--------------------------|---------------0-------|--7h4--|
A|--------------------------|-----------------------|-------|
E|----------------3---------|-----------------------|-------|


[Verse]

e|----------3--2--3-|------2--3--------3-|----------------|----------|
B|--------0-------3-|---3-----3------3---|-----1--------1-|--3--0----|
G|-----0-------0----|------0-------0-----|---0-----3h4----|--0-----2-|
D|--4-------2-------|-2------------------|----------------|--0-----0-|
A|------------------|------------3-------|-3--------------|----------|
E|------------------|--------------------|---------3------|----------|

e|----------------|-----------------|----------------------|
B|----------------|---------0-------|----0----0--1--3----0-|
G|-----0-----0----|----0h2--0-----0-|-2-------0-----0----0-|
D|--0-----4-------|-2----------2----|---------2--------0---|
A|--------------2-|---------3-------|------3---------------|
E|-----------0----|-----------------|---------------3------|

e|-----------------------|---------|
B|-1--3-----1--0-------1-|-0-------|
G|----0-----0-----2------|----2----|
D|----------------0--0---|-------4-|
A|-----------------------|---------|
E|-------3---------------|---------|

e|--3--2--3-|------2--3--------3-|----------------------|7--5---5h7--5--3--2|
B|--------3-|---3-----3------3---|-----1----------1---3-|-------------------|
G|-----0----|------0-------0-----|---0-------3h4------0-|-------------------|
D|--2-------|-2------------------|--------0-----------0-|---0--0------------|
A|----------|------------3-------|-3--------------------|-------------------|
E|----------|--------------------|-----------3----------|-------------------|

e|--3------------|----------------------|------------------------|----------|
B|---------------|-0----------0----0--1-|-3-----0--1--3-----1--0-|----------|
G|--------0--0h2-|-0-----0h2-------0----|-0-----0-----0-----0----|-2-------2|
D|-----2---------|----2------------2----|----0-------------------|-0--0--0--|
A|---------------|-3------------3-------|------------------------|----------|
E|--0------------|----------------------|-3--------------3-------|----------|


[Chorus]

e|--3h5--3--2--3----------|-3h5--3--2--3----------|
B|-------------------3----|-3----------------3----|
G|-------------------0----|---------------0-------|
D|----------------2-------|------------2--------2-|
A|------------------------|-----------------------|
E|-------------0--------0-|-----------------------|

e|--3h5--3--2--3--5--7--8|-10--7-----------------|
B|--3--------------------|--------10--8--7-------|
G|-----------------------|------------------7----|
D|-----------------------|---------------0-----0-|
A|-----------------------|-----------------------|
E|-------------3---------|-----------------------|

e|--(3)3h5--3--2--3----------|-(3)3h5--3--2--3----------|
B|----------------------3----|----3----------------3----|
G|----------------------0----|------------------0-------|
D|-------------------2-------|---------------2--------2-|
A|---------------------------|--------------------------|
E|----------------0--------0-|--------------------------|

e|--(3)3h5--3--2--3--5--7--8|-10--7-----------------|-------|
B|----3---------------------|--------10--8--7-------|-------|
G|--------------------------|------------------7----|-------|
D|--------------------------|---------------0-------|--7h4--|
A|--------------------------|-----------------------|-------|
E|----------------3---------|-----------------------|-------|


[Verse]

e|--------3--2--2-------|-0--------0----------|----------0-----------------|
B|-----0----------------|----3--3-----1-------|-------3-----1-----------1--|
G|--0-----------------0-|-------0-----0-------|----0--4-----0----0---0-----|
D|--2--------------2----|-------2-----2--2----|-2-----------2--2---2----0--|
A|----------------------|-------3-----3-----3-|-------2-----3--------------|
E|--0-----------0-------|---------------------|----------------------------|

e|----------------------------------|------------------3---2--2-------|
B|--0--0--0--------------0----------|-------------0--0--------------0-|
G|-----------2--2--2-----0----------|----0-----0--------(0)------2----|
D|--------------------0--0--0-----0-|-------4--2--------------0-------|
A|----------------------------------|---------------------------------|
E|-----------------3-----------3----|---------------------------------|

e|--0--------0-------------------|-------------------------------|
B|-----3--3--------------------3-|-1--0--0--1--------------------|
G|--------0--------0--------0----|-------------------------------|
D|--------2-----2--------2-------|-------------2-----2--5--4-----|
A|--------3-----------3--------2-|-------0--------3-----5-----5--|
E|-------------------------------|-------------------------------|


[Chorus]

e|--3h5--3--2--3----------|-3h5--3--2--3----------|
B|-------------------3----|-3----------------3----|
G|-------------------0----|---------------0-------|
D|----------------2-------|------------2--------2-|
A|------------------------|-----------------------|
E|-------------0--------0-|-----------------------|

e|--3h5--3--2--3--5--7--8|-10--7-----------------|
B|--3--------------------|--------10--8--7-------|
G|-----------------------|------------------7----|
D|-----------------------|---------------0-----0-|
A|-----------------------|-----------------------|
E|-------------3---------|-----------------------|

e|--(3)3h5--3--2--3----------|-(3)3h5--3--2--3----------|
B|----------------------3----|----3----------------3----|
G|----------------------0----|------------------0-------|
D|-------------------2-------|---------------2--------2-|
A|---------------------------|--------------------------|
E|----------------0--------0-|--------------------------|

e|--(3)3h5--3--2--3--5--7--8|-10--7--------------------|-------------------3-|
B|----3---------------------|--------10--8--7----------|---------------------|
G|--------------------------|------------------7-------|----0----------------|
D|--------------------------|---------------0-----7--4-|-4--4-----4-----4----|
A|--------------------------|--------------------------|-------2-----2-------|
E|----------------3---------|--------------------------|----0-----0----------|


***********************************
| h   hammer-on
|(n)  ghost note
***********************************

            
            
Suggest correction
Creating personal tab
Creating personal tab
You can edit any tab online and save it as your Personal.

You can edit, replace or remove any tab part or add personal notes – all changes will be seen only by you.

Personal tabs can be accessed anytime from any device, even offline.
Learn more »
comments
print report bad tab
46 comments total. Showing first comments.
+53 reply
Holykatzbob 81 Jul 26, 2011 10:29 AM

wow novice difficulty? i think not lol

+30 reply
eSdaze 165 Jul 29, 2011 04:39 AM

well it's not difficult, it's a matter of memorizing everything that is a pain in the ass

+38 reply
Reighnart 48 Aug 10, 2011 10:47 PM

Yeah no, this is at least intermediate.

guest
You may want to rate the tab now too:
select rating
Wanna post a correction for this tab? Suggest correction