Oops, an error
Loading. Please wait.

In Circles bass

version 1
version 1

Whole song

Interactive

9,757 views 18 this week
1 commentread comment
1 2 3 4 5
x 3
add to favorites
×
Save as Personal and add changes to this tab that will be seen only by you. Learn more ›
×
You can save this tab as Personal to edit and correct it or add notes. All changes will be seen only by you. Learn more »
launch autoscroll
font size
0
reset
guitar tuner
edit
Autoscroll
slow
fast
+/-
esc
set tempo
stop
In Circles (bass tab)
by Sunny Day Real Estate
from the album Diary

played in drop-D tuning (D-A-D-G)

Intro 
last one replace second half with 
G |------------------------------------------------------|---------------------------------| 
D |--------0--5--2-3----0-2-3--------0--5--2-3----0-2-3--|-------0--5--2-3--3-2-0----------| 
A |------------------1-------------------------1---------|------------------------3--------|
D |--0--0----------------------3--3----------------------|-3--3----------------------------|

Verse
G |----------------------------------------------------------------------------------------| 
D |----------------------------------------------------------------------------------------| 
A |--0--0--0-0-1-1--1-3-1-0----------------------------------------------------------------| 
D |--------------------------3--3--3-5--3--2-2-3-2-5---------------------------------------|

Basically i work around that. Change it up from line to line, etc.


Chorus 
this part first two times 
G |----------------------------------------------------------------------------------------| 
D |----------------------------------------------------------------------------------------| 
A |-----------1-0---1-0---1-0----------1-0---1-0---1-0-------------------------------------| 
D |--0--0--0------3-----3-----3--3--3------3-----3-----------------------------------------|

this part second two times at end, replace 2nd half with 
G |-------------------------------------------------------------|--------------------------|
D |-------------------------------------------------------------|--------------------------| 
A |----------------1-0---1-0---1-0--------------1-0---1-0---1-0-|----------1-0---1-0---1-0-|
D |--0-0-0-0-0--0------3-----3-----3-3-3-3-3--3-----3-----3-----|-3--3--3------3-----3-----|


Bridge 
first two times 
G |----------------------------------------------------------------------------------------|
D |----------------------------------------------------------------------------------------| 
A |--3-3-3-3-3----1-1-1-1-1----0-0-0-0-0--0-0--1-0---1-0---1-0-----------------------------| 
D |------------------------------------------------3-----3---------------------------------|

other four times 
G |----------------------------------------------------------------------------------------| 
D |------------------------------------------5-7-------------------------------------------| 
A |--3-3-3-3-3-3-3-3-1-1-1-1-1-1-1-1-0-0-0-0-----0-0--1-0---1-0---1-0----------------------|
D |-------------------------------------------------------3-----3--------------------------|

Other Part (where it all kinda chills out for a bit)

"in.....cir......cles................in..........cir.....cles..........i....goooo...." 
G |----------------------------------------------------------------------------------------| 
D |----------------------------------------------------------------------------------------|  
A |-------------------------------------------------12-13------5---------------------------| 
D |--0---------------------------------------------------------------------------------12--|
Ends on open low D.

            
            
Suggest correction
Creating personal tab
Creating personal tab
You can edit any tab online and save it as your Personal.

You can edit, replace or remove any tab part or add personal notes – all changes will be seen only by you.

Personal tabs can be accessed anytime from any device, even offline.
Learn more »
Give kudos to tab author, rate the tab!
1 2 3 4 5
comments
print report bad tab
1 comment total.
0 reply
miketheman401 57 Aug 17, 2009 08:03 AM

nice job!

guest
You may want to rate the tab now too:
select rating
Wanna post a correction for this tab? Suggest correction