Oops, an error
Loading. Please wait.

Lonely Death Blues tab

40 views 1 this week
no commentswrite comment
1 2 3 4 5
3 more votes to show rating
add to favorites
×
Save as Personal and add changes to this tab that will be seen only by you. Learn more ›
×
You can save this tab as Personal to edit and correct it or add notes. All changes will be seen only by you. Learn more »
launch autoscroll
font size
0
reset
how to read this tab
guitar tuner
edit
Autoscroll
slow
fast
+/-
esc
set tempo
stop
Author
Difficulty
[Chords]
F 133211
Bb x13331
C x35553

[Verse]
F                Bb
Dig yourself in deep
 Bb                  C           
Bury yourself six feet underground
F                   Bb
Walk with your chin high
                          C
You're holding onto your pride
F           Bb
Little bit battered and bruised 
Bb                         C
Nothing matters when you ain't got anything left to lose
F            Bb
Except you, how did you expect to
 Bb                 C                       F
Make it through, singing the lonely death blues?

[Solo]
   F        Bb      Bb       C           F         Bb      Bb         C       
e|---------|------|---------|-----------|---------|-------|---------|------------|
B|---------|------|---------|-----------|---------|-------|---------|------------|
G|---------|------|---------|-5-7-5-----|---------|-------|---------|-5-7--------|
D|-7-7-5---|5-----|-7-7-5-7-|-------7-5-|-7-7-5---|-5-----|-7-7-5-7-|-----7-7-5--|
A|-------8-|--5-8-|---------|-----------|-------8-|---5-8-|---------|------------|
E|---------|------|---------|-----------|---------|-------|---------|------------|

[Verse]
   F
The vultures overhead  
e|-1----------------------|
B|-1----------------------|
G|-2----------------------|
D|-3----------------------|
A|-3--------------------1-|
E|-1-------------1-1-3-5--|

          Bb
Thinking life that I led
e|----------------------------|
B|----------------------------|
G|----------------------------|
D|----------------------------|
A|--------------------1-3-5-1-|
E|----------------------------|

      Bb
The things I should've said  
e|---------------------------------|
B|---------------------------------|
G|---------------------------------|
D|---------------------------------|
A|-----1----------------1-1-3-5----|
E|---------------------------------|

      C
That bible I never read
e|------------------------------|
B|------------------------------|
G|------------------------------|
D|------------------------------|
A|----3--------------3-3-1------|
E|-------------------------3----|

    F
And all the blood that I bled
e|---------------------------------|
B|-1-------------------------------|
G|---------------------------------|
D|---------------------------------| 
A|---------------------------------|
E|-1----------------------1-1-3-5--|

     Bb
And all the sweat I sweat
e|-----------------------------|
B|-----------------------------|
G|-----------------------------|
D|-----------------------------|
A|----1----------------1-3-5---|
E|-----------------------------|

           Bb
I've been working so hard to forget
e|-------------------------------------|
B|-------------------------------------|
G|-------------------------------------|
D|-------------------------------------|
A|---------1----------------1-1-3-5----|
E|-------------------------------------|

       C                                 F
I may live with some regrets and that's  fine
e|-------------------------------------------|
B|-------------------------------------------|
G|-------------------------------------------|
D|-------------------------------------------|
A|----3-------------------3-3-1--------------|
E|-------------------------------3--------1--|
 
[Solo]
   F        Bb      Bb       C           F         Bb      Bb         C       
e|---------|------|---------|-----------|---------|-------|---------|------------|
B|---------|------|---------|-----------|---------|-------|---------|------------|
G|---------|------|---------|-5-7-5-----|---------|-------|---------|-5-7-5------|
D|-7-7-5---|5-----|-7-7-5-7-|-------7-5-|-7-7-5---|-5-----|-7-7-5-7-|-------7-5--|
A|-------8-|--5-8-|---------|-----------|-------8-|---5-8-|---------|------------|
E|---------|------|---------|-----------|---------|-------|---------|------------|

[Verse]
F                    Bb
There's nothing worth fighting for
     Bb       C
I'm falling right on my sword
F                          Bb
When there's nothing worth fighting for
Bb          C
I'm falling right on my sword
F                          Bb
When there's nothing worth fighting for
    Bb         C
I'm falling right on my sword
F                          Bb
When there's nothing worth fighting for
Bb           C              F
I'm falling right on my sword

[Outro]
   F          Bb         Bb         C                  
e|---------|-----------|-----------|------------------|
B|---------|-------5-6-|-8-8-8-6-8-|-10-10-10-10-8----|
G|-------5-|-7--7-7----|-----------|---------------10-|
D|-7-7-8---|-----------|-----------|------------------|
A|---------|-----------|-----------|------------------|
E|---------|-----------|-----------|------------------|

     F          Bb         Bb         C                  F 
e|---------|-----------|-----------|------------------|-----|
B|---------|-------5-6-|-8-8-8-6-8-|-10-10-10-10-8----|-----|
G|-------5-|-7--7-7----|-----------|---------------10-|-----|
D|-7-7-8---|-----------|-----------|------------------|-7---|
A|---------|-----------|-----------|------------------|-----|
E|---------|-----------|-----------|------------------|-----|

            
            
Suggest correction
Creating personal tab
Creating personal tab
You can edit any tab online and save it as your Personal.

You can edit, replace or remove any tab part or add personal notes – all changes will be seen only by you.

Personal tabs can be accessed anytime from any device, even offline.
Learn more »
Give kudos to tab author, rate the tab!
1 2 3 4 5
comments
print report bad tab
guest
You may want to rate the tab now too:
select rating
Wanna post a correction for this tab? Suggest correction