Oops, an error
Loading. Please wait.
We have an official Radio Song tab made by UG professional guitarists. Check out the tab »
×
44,567 views 30 this week
10 commentsread comments
1 2 3 4 5
x 12
add to favorites
×
Save as Personal and add changes to this tab that will be seen only by you. Learn more ›
×
You can save this tab as Personal to edit and correct it or add notes. All changes will be seen only by you. Learn more »
launch autoscroll
font size
0
reset
how to read this tab
guitar tuner
backing track
0:00
0:00
edit
Autoscroll
slow
fast
+/-
esc
set tempo
stop
Author
Unregistered
"Radio Song" by Superbus

I've been using tab sites for years and i've never tabbed one out for anyone. So this is
first tab posting and i'm quite sure it's correct. Sounds good to me when i play with
music, but you never know by ear. You can screw up the most simplest things. I might've 
some stuff but when things get redundant i get careless. Anywho, have fun!

Standard tuning

[Intro] repeat as needed (just listen to the song)
e|---------------------------------------------------------------------------|
B|---------------------------------------------------------------------------|
G|---------------------------------------------------------------------------|
D|---------------------------------------------------------------------------|
A|-3h5-5-5-5-5-----------7h8-7h8-3h5-5-5-5-5---/10-8-7h8p7-------------------|
E|-------------5-6-6-6-6---------------------5-------------------------------|

[Verse] repeat as needed     Last part of the verse play once:
e|-x--x-------x---x----|    |-------10-|
B|-6--6-------11--11---|    |-----11---|
G|-7--7-------12--12---|    |---12-----|
D|-7--7-------12--12---|    |-12-------|
A|-5--5-------10--10---|    |----------|
E|-x--x-------x---x----|    |----------|

[Chorus] figure out the strumming (i'm lazy and it's simple)
e|--------------|
B|--------------|
G|-7--6--7--9---|
D|-7--7--8--10--|
A|-5--7--8--10--|
E|----5--6--8---|


[Intro] repeat as needed (just listen to the song)
e|---------------------------------------------------------------------------|
B|---------------------------------------------------------------------------|
G|---------------------------------------------------------------------------|
D|---------------------------------------------------------------------------|
A|-3h5-5-5-5-5-----------7h8-7h8-3h5-5-5-5-5---/10-8-7h8p7-------------------|
E|-------------5-6-6-6-6---------------------5-------------------------------|

[Verse 2]
                             Last part of the verse play once:
e|-x--x-------x---x----|    |-------10-|
B|-6--6-------11--11---|    |-----11---|
G|-7--7-------12--12---|    |---12-----|
D|-7--7-------12--12---|    |-12-------|
A|-5--5-------10--10---|    |----------|
E|-x--x-------x---x----|    |----------|

[Chorus] x4
e|--------------|
B|--------------|
G|-7--6--7--9---|
D|-7--7--8--10--|
A|-5--7--8--10--|
E|----5--6--8---|

 2nd Guitar part:repeat as needed (in the chorus you can play if you want to)
e|----17-15-17----17-15-17-----17-15-17----17-15-17----17-15-17-|
B|-15----------15-----------------------------------------------|
G|--------------------------14----------14----------15----------|
D|--------------------------------------------------------------|
A|--------------------------------------------------------------|
E|--------------------------------------------------------------|

                                            second time through bend not slide
e|----17-15-17-----17-15-17-17/20-17-15-17| |----17-15-17-17b-15-17-|
B|----------------------------------------| |-----------------------|
G|-15-----------17------------------------| |-17--------------------|
D|----------------------------------------| |-----------------------|
A|----------------------------------------| |-----------------------|
E|----------------------------------------| |-----------------------|

2nd guitar x4 switch on and off with the last part each time you go through
(or just listen to the song because i suck at explaining things)

[Bridge] repeat as needed
e|------------------------------|
B|------------------------------|
G|-7----------------------------|
D|-7-x4--5-----3-----5/3----3p0-|
A|-5-----5-x4--3-x4--5/3----3p0-|
E|-------3-----1-----3/1--0h1p0-|

[3rd Verse] x3 (pm 10 but open for singles)       Play last after 3rd verse
e|-------------13----------12----------10------| |------------------------|
B|-10-10-10-10----10-10-10----10-10-10----14h15| |-10-10-10-10-6-6-6-6-5--|
G|---------------------------------------------| |------------------------|
D|---------------------------------------------| |------------------------|
A|---------------------------------------------| |------------------------|
E|---------------------------------------------| |------------------------|
pm*  *  *  *      *  *  *     *  *  *             *  *  *  *

[Chorus] x 4
e|--------------|
B|--------------|
G|-7--6--7--9---|
D|-7--7--8--10--|
A|-5--7--8--10--|
E|----5--6--8---|

Play 2nd guitar part if you'd like (I do it half and half it sounds good)

 [END WITH]
e|------------|
B|------------|
G|-7--7--7--7-|
D|-7--7--7--7-|
A|-5--5--5--5-|
E|------------|

Questions or comments and corrections.... email me at the.heart.of.autumn@gmail.com
thanks and i hope i didn't confuse you too much with my complexed
female mind. <3

************************************

| h  Hammer-on
| p  Pull-off
| /  Slide up
| x  Dead note
| b  Bend
| PM Palm Mute

************************************

            
            
Suggest correction
Creating personal tab
Creating personal tab
You can edit any tab online and save it as your Personal.

You can edit, replace or remove any tab part or add personal notes – all changes will be seen only by you.

Personal tabs can be accessed anytime from any device, even offline.
Learn more »
comments
print report bad tab
10 comments total. Showing first comments. show 1 bad comment
+4 reply
Johnyboy 10 Dec 31, 2007 07:47 PM

I really Like This Song.This Is Awesome

+3 reply
Dark Raven X 108 Jan 07, 2008 01:24 AM

This song makes me all warm and fuzzy. >_>

guest
Wanna post a correction for this tab? Suggest correction