Oops, an error
Loading. Please wait.

Hyper Enough chords

4,818 views 21 this week
1 commentread comment
1 2 3 4 5
x 3
add to favorites
×
Save as Personal and add changes to this tab that will be seen only by you. Learn more ›
×
You can save this tab as Personal to edit and correct it or add notes. All changes will be seen only by you. Learn more »
launch autoscroll
font size
0
reset
transpose
0
reset
simplify chords
display chords
guitar tuner
edit
Autoscroll
slow
fast
+/-
esc
set tempo
stop
Strumming
There is no strumming pattern for this song yet. and get +5 IQ
#----------------------------------PLEASE NOTE---------------------------------#
#This file is the author's own work and represents their interpretation of the #
#song. You may only use this file for private study, scholarship, or research. #
#------------------------------------------------------------------------------#
#
Date: Wed, 31 Jan 1996 12:50:07 -0500 (EST)
From: Thomas  Kenniston 
Subject: CHR:  "Hyper Enough"  by Superchunk


"Hyper Enough" by Superchunk

Transcription by Tommy K.

You'll have to listen to the song to get the right timings...but here it is.


INTRO:  B5  C#5  (4x)

            ----------7----------------------------------------------------|
            ----/9--7-----5--4---------------------------------------------|
MAIN        --------------------6--4---4-6-4----2^1-2^1-2^1-2^1-2^1-2^1--4-|
RIFF        ---------------------------------------------------------------|
            ---------------------------------------------------------------|
            ---------------------------------------------------------------|


VERSE:    E5 (at 7th Fret)  B5  C#5  B5  G#5  A5  B5


BREAK:    E5     F#5    A5    E5    F#5    A5    last time go to B5
.         ////   ////   ////  ////  ////   //

(Slashes are = to 8th notes)


Any Corrections or additions are appreciated.

            
            
Suggest correction
Creating personal tab
Creating personal tab
You can edit any tab online and save it as your Personal.

You can edit, replace or remove any tab part or add personal notes – all changes will be seen only by you.

Personal tabs can be accessed anytime from any device, even offline.
Learn more »
Give kudos to tab author, rate the tab!
1 2 3 4 5
comments
print report bad tab
1 comment total.
0 reply
fetusrobot 406 Nov 01, 2013 06:38 AM

i think the solo would sound better like this :
---------------------------------------------------------------|
----------12---------------------------------------------------|
--13~~11------8-8h9-8~-----------------------------------------|
---------------------/11~~6-7-6-7-6-7-6-7-6-7-6-7/9~~----------|
---------------------------------------------------------------|
---------------------------------------------------------------|
which is essentially the same except for the B 5 4 G 6 4 4 6 4 part that was kinda off. personally i think it sounds better this way and is kinda more conventional playing, and since it's up on the fretboard it's easier to play. also the tonality is steadier this way i think. otherwise great tab! :)

guest
Wanna post a correction for this tab? Suggest correction