Oops, an error
Loading. Please wait.

Diamond Hoo Ha Man intro bass

version 1
version 1

Intro

Interactive

4,952 views 6 this week
1 commentread comment
1 2 3 4 5
x 6
add to favorites
×
Save as Personal and add changes to this tab that will be seen only by you. Learn more ›
×
You can save this tab as Personal to edit and correct it or add notes. All changes will be seen only by you. Learn more »
launch autoscroll
font size
0
reset
guitar tuner
edit
Autoscroll
slow
fast
+/-
esc
set tempo
stop
Author
-----------------------------------------------------------------------------
	          Diamond Hoo Ha Man - Supergrass (BASS)
-----------------------------------------------------------------------------

Tabbed By: Adam Smart
email: Virtual-Dude@hotmail.co.uk

LAST UPDATED: 6th April 08


(Come in with the singer @ 00:26 and use distortion)

G|----------7-7-5----------5--7-5------|
D|----------------7-3--5-7--------7----|
A|--3-3-4-5-------------------------5--|
E|-------------------------------------| x2


Then It Goes:

G|----5-7-----5-7-------5-------5-----5-7-----5-7-------5-------5---|
D|--7-------7-----3-5-7---3-5-7-----7-------7-----3-5-7---3-5-7-----|
A|--------5-----------------------5-------5-------------------------|
E|------------------------------------------------------------------|


Then:

G|--------------|
D|------5~------|
A|--3~----------|
E|--------------|


Chorus:

G|----------------------------------------------------------|
D|------3----------------------3---------------------3------|
A|--3-5----3-3~--1-1-0---0-1-5----3-3--1-1-0---0-1-1---3-5--|
E|---------------------3---------------------3--------------| x2


After this Chorus, Play This In Time With The Other Guitar:

G|----------------------------------|
D|----------------------------------|
A|--5~--8~--3~--5~--5~--8~--3~--5~--|
E|----------------------------------|


Then Play the Main Riff Again @ 01:33

G|----------7-7-5----------5--7-5------|
D|----------------7-3--5-7--------7----|
A|--3-3-4-5-------------------------5--|
E|-------------------------------------| x2


And Then:

G|----5-7-----5-7-------5-------5-----5-7-----5-7-------5-------5---|
D|--7-------7-----3-5-7---3-5-7-----7-------7-----3-5-7---3-5-7-----|
A|--------5-----------------------5-------5-------------------------|
E|------------------------------------------------------------------|


Then The Pre-Chorus Again

G|--------------|
D|------5~------|
A|--3~----------|
E|--------------|


And The Chorus Again:

G|----------------------------------------------------------|
D|------3----------------------3---------------------3------|
A|--3-5----3-3~--1-1-0---0-1-5----3-3--1-1-0---0-1-1---3-5--|
E|---------------------3---------------------3--------------|


Bridge:

G|--5-------5-------7-5-----7-5------|
D|----7-5-----7-5-------7-------7----|
A|--------5-------5-------5-------5--|
E|-----------------------------------| x2


Then Pre-Chorus Again:

G|--------------|
D|------5~------|
A|--3~----------|
E|--------------|


Then Chorus:

G|----------------------------------------------------------|
D|------3----------------------3---------------------3------|
A|--3-5----3-3~--1-1-0---0-1-5----3-3--1-1-0---0-1-1---3-5--|
E|---------------------3---------------------3--------------|


End On:

G|-----|
D|--7--|
A|--5--|
E|-----|

That's all you need to know really, it's easy to work out when to play what so have fun 
comments via email are appreciated!

            
            
Suggest correction
Creating personal tab
Creating personal tab
You can edit any tab online and save it as your Personal.

You can edit, replace or remove any tab part or add personal notes – all changes will be seen only by you.

Personal tabs can be accessed anytime from any device, even offline.
Learn more »
comments
print report bad tab
1 comment total.
0 reply
Yan101 10 Sep 21, 2017 01:45 PM

Thanks for the Tab! :-)

guest
You may want to rate the tab now too:
select rating
Wanna post a correction for this tab? Suggest correction