Oops, an error
Loading. Please wait.

The Logical Song bass

version 1
version 1

Whole song

Interactive

14,686 views 30 this week
2 commentsread comments
1 2 3 4 5
x 9
add to favorites
×
Save as Personal and add changes to this tab that will be seen only by you. Learn more ›
×
You can save this tab as Personal to edit and correct it or add notes. All changes will be seen only by you. Learn more »
launch autoscroll
font size
0
reset
guitar tuner
edit
Autoscroll
slow
fast
+/-
esc
set tempo
stop
SUPERTRAMP - "The Logical Song" - Bass Tab

Common Time (4/4)
Standard Tuning (EADG)

[Intro]
G|-------|
D|-------|
A|-----1-|
E|-1h3---|

[Verse 1] 
Rest

[Verse 2]
G|-------------|-------------|-----------|-----------|-----------|
D|-------------|-------------|-----------|-----------|-----------|
A|-3-r-3-3-r-3-|-------------|-----------|-----------|-----------|
E|-------------|-4-r-4-3-r-3-|-3-r-6-r-6-|-6-r-4-r-4-|-5-r-5-5-r-|
   1 2 & 3 4 &   1 2 & 3 4 &   1 2 3 4 &   1 2 3 4 &   1 2 & 3 4

[Chorus]
             (x6)
G|---------------|-----------|-----------|
D|*-------------*|-----------|-----------|
A|*-6---6-r-----*|-4---3-----|-----------|
E|----------4h6--|-----------|-6---4-----|
    1 2 & 3 4 &    1 2 & 3 4   1 2 & 3 4 

             (x6)
G|---------------|-----------|-----------|-----------|-----------|
D|*-------------*|-----------|-----------|-----------|-----------|
A|*-6---6-r-----*|-4---3-----|-----------|-4---3-----|-----------|
E|----------4h6--|-----------|-6---4-----|-----------|-6---4-----|
    1 2 & 3 4 &    1 2 & 3 4   1 2 & 3 4   1 2 & 3 4   1 2 & 3 4

[Verse 3]
G|-------------|-------------|-----------|-----------|-----------|
D|-------------|-------------|-----------|-----------|-----------|
A|-3-r-3-3-r-3-|-------------|-----------|-----------|-----------|
E|-------------|-4-r-4-3-r-3-|-3-r-6-r-6-|-6-r-4-r-4-|-5-r-5-5-r-|
   1 2 & 3 4 &   1 2 & 3 4 &   1 2 3 4 &   1 2 3 4 &   1 2 & 3 4

G|-------------|-------------|-----------|-----------|-------------|
D|-------------|-------------|-----------|-----------|-------------|
A|-3-r-3-3-r-3-|-------------|-----------|-----------|-------3-r-3-|
E|-------------|-4-r-4-3-r-3-|-3-r-6-r-6-|-6-r-4-r-4-|-5-r-5-------|
   1 2 & 3 4 &   1 2 & 3 4 &   1 2 3 4 &   1 2 3 4 &   1 2 & 3 4 &

G|-----------|
D|-------5-r-|
A|-6-r-6-----|
E|-----------|
   1 2 & 3 4 

[Solo] 
Like 3rd Verse

[End]
G|------5-r-r-3-|-5-r-5-9------|-----5-r-----|---------|
D|*-3-5---------|---------10-r-|-3-5-----6-5-|-3-------|
A|*-------------|--------------|-------------|---------|
E|--------------|--------------|-------------|---------|
    1 & 2 3 4 &   1 2 & 3 &  4   1 & 2 3 & 4   1 2 3 4 

G|------5-r-r-3-|-5-r-5-9------|-----5-r-----|---------|---------|
D|*-3-5---------|---------10-r-|-3-5-----6-5-|-3-------|-6-------|
A|*-------------|--------------|-------------|-----6---|---------|
E|--------------|--------------|-------------|---------|---------|
    1 & 2 3 4 &   1 2 & 3 &  4   1 & 2 3 & 4   1 2 3 4   1 2 3 4

By: Johari Taylor
E-mail: viking@powerup.com.au

            
            
Suggest correction
Creating personal tab
Creating personal tab
You can edit any tab online and save it as your Personal.

You can edit, replace or remove any tab part or add personal notes – all changes will be seen only by you.

Personal tabs can be accessed anytime from any device, even offline.
Learn more »
comments
print report bad tab
2 comments total.
0 reply
kcreeves 10 Oct 30, 2003 07:00 PM

I am a beginner bass player and your tab was very helpful in building my growing repotoire!

0 reply
Clever Girl 10 Mar 16, 2004 07:00 PM

Very nice, not often you find a bass tab that can lead you to knowing the whole song.

guest
Wanna post a correction for this tab? Suggest correction