Oops, an error
Loading. Please wait.

Walk You Home chords

version 2
version 2

Whole song

7,609 views 153 this week
no commentswrite comment
1 2 3 4 5
3 more votes to show rating
add to favorites
×
Save as Personal and add changes to this tab that will be seen only by you. Learn more ›
×
You can save this tab as Personal to edit and correct it or add notes. All changes will be seen only by you. Learn more »
launch autoscroll
font size
0
reset
transpose
0
reset
simplify chords
display chords
guitar tuner
edit
Autoscroll
slow
fast
+/-
esc
set tempo
stop
Author
Strumming
There is no strumming pattern for this song yet. and get +5 IQ
Walk you home

Intro: C-F

-------------------------------------------|
--10^------------13/15--10-------10--------|
-----------10h12-----------12------12------|
-----10h12---------------------------------|
-------------------------------------------|
-------------------------------------------|

  C                        Dm
Tonight it's just the two of us
                Em          Am
so forget the world for a while
            Em              Am
open your heart and open your eyes
   Fm   Em    Fm          C
I'm right here in front of you
  C                        Dm
and you look so pretty in your dress
                Em          Am
though i know i look like a mess
             Em             Am
i'll do my best to win your heart
          Fm    Em  Fm      C
so can i walk you home tonight?

   F                     Em
please tell me how you feel
       Dm                     C
cause deep inside i know it's real
F                  Em        Am
i promise i will forever be yours
 F
darling open up to me
 Fm              C
let me walk you home

Em                                Am
before the morning before the sunrise
Em                     Fm
before i go back to reality
  C         G            Am
and you go back to your life
                   F  Em   G        C
tell me that you feel the same way too

G-Am-F-Em-Fm-C


--------------------------------------|---------------------|
--------------------------------------|-------------13------|
------------------10----10----10h12^--|-------10-10----12^--|
--10h12-10--10h12----12----12---------|-10h12---------------|
--------------------------------------|---------------------|
--------------------------------------|---------------------|


---------------------------------13-----12----10V-----|
-------13^--11-10-------------------------------------|
---10--------------12^-----10-10-----10----10-----12v-|
------------------------------------------------------|
------------------------------------------------------|
------------------------------------------------------|


------------------------------------------------------|
-----------------10-11-12-13--------------------------|
------10-----12^-------------12^--10----12/14---10h12-|
10h12----12--------------------------12---------------|
------------------------------------------------------|
------------------------------------------------------|

---------------------|-----------------------|----------------------|
------------11-11\10-|-----11----10h11-------|------------10h11-10^-|
------10-------------|---10---10-------10----|-------10h12----------|
10h12----12----------|-10-----------------12-|-10h12----------------|
---------------------|-----------------------|----------------------|
---------------------|-----------------------|----------------------|


F                       Em
please tell me how you feel
       Dm                     C
cause deep inside i know it's real
F                  Em        AM7
i promise i will forever be yours
F
darling open up to me
Fm                C
let me walk you home
F
even if you'll never be mine
Fm                      C
i'm in love with you tonight...

            
            
Suggest correction
Creating personal tab
Creating personal tab
You can edit any tab online and save it as your Personal.

You can edit, replace or remove any tab part or add personal notes – all changes will be seen only by you.

Personal tabs can be accessed anytime from any device, even offline.
Learn more »
Give kudos to tab author, rate the tab!
1 2 3 4 5
comments
print report bad tab
guest
You may want to rate the tab now too:
select rating
Wanna post a correction for this tab? Suggest correction