Oops, an error
Loading. Please wait.

All Is Lost tab

2,206 views 36 this week
6 commentsread comments
1 2 3 4 5
x 6
add to favorites
×
Save as Personal and add changes to this tab that will be seen only by you. Learn more ›
×
You can save this tab as Personal to edit and correct it or add notes. All changes will be seen only by you. Learn more »
launch autoscroll
font size
0
reset
how to read this tab
guitar tuner
edit
Autoscroll
slow
fast
+/-
esc
set tempo
stop
Author
Difficulty
About this tab version
Contains full write out of song. Was this info helpful? Yes No
Tabbed by J

Lyrics:
Stay,
I want you to stay,
Leave and then you came,
Help me be okay,
I want you to stay,

Cause I want you again 

Anywhere you are,
Help when you say,
I don't know who you are,
I don't know what to say,

Cause I lost you again 

[Verse]

   A#7              Eb       Dm
e|-6-6-6-6-6-6-6-6--6-6-6-6--5-5-5-5-|
B|-6-6-6-6-6-6-6-6--8-8-8-8--6-6-6-6-|
G|-7-7-7-7-7-7-7-7--8-8-8-8--7-7-7-7-|
D|-6-6-6-6-6-6-6-6--8-8-8-8--7-7-7-7-|
A|-8-8-8-8-8-8-8-8--6-6-6-6--5-5-5-5-|
E|-6-6-6-6-6-6-6-6-------------------|

e|------------------|
B|----------4-3-----|
G|-3--7-5-7-----5-3-|
D|------------------|
A|------------------|
E|------------------|

[Chorus]

e|-5-5-5-5-5-5-5-5--6-6-6-6--6-6-6-6-|
B|-6-6-6-6-6-6-6-6--8-8-8-8--6-6-6-6-|
G|-7-7-7-7-7-7-7-7--8-8-8-8--7-7-7-7-|
D|-7-7-7-7-7-7-7-7--8-8-8-8--6-6-6-6-|
A|-5-5-5-5-5-5-5-5--6-6-6-6--8-8-8-8-|
E|---------------------------6-6-6-6-|

e|---------------------------|
B|---------------------------|
G|---------------------------|
D|-5-5-5-5-5-5-5-5-5-5h6-5h6-|
A|---------------------------|
E|---------------------------|


[Outro]

e|-5-5-5-5-5-5-5-5--6-6-6-6--6-6-6-6-|
B|-6-6-6-6-6-6-6-6--8-8-8-8--6-6-6-6-|
G|-7-7-7-7-7-7-7-7--8-8-8-8--7-7-7-7-|
D|-7-7-7-7-7-7-7-7--8-8-8-8--6-6-6-6-|
A|-5-5-5-5-5-5-5-5--6-6-6-6--8-8-8-8-|
E|---------------------------6-6-6-6-|

e|------------------|
B|----------4-3-----|
G|-3--7-5-7-----5-3-|
D|------------------|
A|------------------|
E|------------------|
 

************************************

| h   Hammer-on

************************************ 

            
            
Suggest correction
Creating personal tab
Creating personal tab
You can edit any tab online and save it as your Personal.

You can edit, replace or remove any tab part or add personal notes – all changes will be seen only by you.

Personal tabs can be accessed anytime from any device, even offline.
Learn more »
comments
print report bad tab
6 comments total. Showing first comments.
+1 reply
lucabiasotti 10 Feb 09, 2017 08:21 PM, edited on February 10 2017, 01:22 am

i suggest A#7 to be
668786

for acoustic guitar lolthanks for the tab

+1 reply
bigmeatyclaws 10 Apr 30, 2017 09:45 PM, edited on May 1 2017, 01:46 am

hey but the intro/verse is without a doubt
6 11 10
8 13 11
7 12 12
8 13 12
6 11 10
x x x

still workin on what the chorus is

0 reply
macjm12 1,020 May 01, 2017 08:59 PM

yes i think you might be right, I rushed through this and it looks like i got the progression mostly right but not the key

guest
You may want to rate the tab now too:
select rating
Wanna post a correction for this tab? Suggest correction