Oops, an error
Loading. Please wait.

Lesbian Knives tab

454 views 9 this week
1 commentread comment
1 2 3 4 5
2 more votes to show rating
add to favorites
×
Save as Personal and add changes to this tab that will be seen only by you. Learn more ›
×
You can save this tab as Personal to edit and correct it or add notes. All changes will be seen only by you. Learn more »
launch autoscroll
font size
0
reset
how to read this tab
guitar tuner
edit
Autoscroll
slow
fast
+/-
esc
set tempo
stop
Author
Tabbed by J

[Intro]

Lead
e|------------------------------------------------------------------------|
B|------------------------------------------------------------------------|
G|------------------------------------------------------------------------|
D|------------------------------------------------------------------------|
A|---------------11-11-11-9-9-9-9-9---------------------------------------|
E|7-7-7-7-7-7-7-7------------------11-11-11-11-12-12-11-11-7-7-7-7-7-7-7-7|


[Verse]

Verse 1
I am coming to all the places I thought I knew
You will be there too cause all the faces you will screw
And I coming for all the times you were a whore
And I am coming through to your hair with 

Verse 2
And I had been crying, cause I was stabbed with a knife
It was even worse that I was stabbed by your wife
You could have told me you were a lesbian tonight
It changes all the time so I said fuck it I'll be

Rhythm 
e|7-7-7-7--6-6-6-6--2-2-2-2--7-7-7-7|
B|7-7-7-7--7-7-7-7--2-2-2-2--7-7-7-7|
G|8-8-8-8--8-8-8-8--3-3-3-3--8-8-8-8|
D|9-9-9-9--8-8-8-8--4-4-4-4--9-9-9-9|
A|9-9-9-9--6-6-6-6--4-4-4-4--9-9-9-9|
E|7-7-7-7-----------2-2-2-2--7-7-7-7|

Lead
e|------------------------------------------------------------------------|
B|------------------------------------------------------------------------|
G|------------------------------------------------------------------------|
D|------------------------------------------------------------------------|
A|---------------11-11-11-9-9-9-9-9---------------------------------------|
E|7-7-7-7-7-7-7-7------------------11-11-11-11-12-12-11-11-7-7-7-7-7-7-7-7|


[Chorus]


[Chorus 1]

Super glue-ooh oh oh ooooh ooooh oh, glue-oooh ooh
Super glue-ooh oh oh, super glue-ooh oh, SUPERGLUE


[Chorus 2]

Alright-aaao, alright-aaaao
I'll be alright-aoo, alright-aooo, Ill BE FINE

Rhythm (Played lightly)
e|7----------6|
B|7----------7|
G|8----------8|
D|9----------8|
A|9----------6|
E|7-----------|

Lead
e|7-----------|
B|--11-9------|
G|------11----|
D|--------13--|
A|------------|
E|------------|


[Outro]

wooooooowoooooowoo
wooooooooowwwaaaaa

Rhythm
e|-4-4-4-4-2-2-2-2-7-7-7-7-7-7-7-7-------------|
B|-4-4-4-4-2-2-2-2-7-7-7-7-7-7-7-7-------------|
G|-5-5-5-5-3-3-3-3-8-8-8-8-8-8-8-8-------------|
D|-6-6-6-6-4-4-4-4-9-9-9-9-9-9-9-9-------------|
A|-6-6-6-6-4-4-4-4-9-9-9-9-9-9-9-9-------------|
E|-4-4-4-4-2-2-2-2-7-7-7-7-7-7-7-7-------------|

Lead (Tremolo)
e|-4-4-4-4-4-4-4-4---------------------------------------------|
B|----------------7-7-7-7-------4-4-4-4-4-4-4-4-4-4-4-4-4-4-4-4|
G|-----------------------6-6-6-6-------------------------------|
D|-------------------------------------------------------------|
A|-------------------------------------------------------------|
E|-------------------------------------------------------------|

e|-4-4-4-4-4-4-4-4--------6-6-6-6-7-7-7-7-7-7-7-7-7-7-7-7-7-7-7-7|
B|----------------7-7-7-7----------------------------------------|
G|---------------------------------------------------------------|
D|---------------------------------------------------------------|
A|---------------------------------------------------------------|
E|---------------------------------------------------------------|

            
            
Suggest correction
Creating personal tab
Creating personal tab
You can edit any tab online and save it as your Personal.

You can edit, replace or remove any tab part or add personal notes – all changes will be seen only by you.

Personal tabs can be accessed anytime from any device, even offline.
Learn more »
Give kudos to tab author, rate the tab!
1 2 3 4 5
comments
print report bad tab
1 comment total.
0 reply
macjm12 1,020 Jul 14, 2016 11:07 AM

hey guys this is my first tab by ear that isn't all power chords so let me know if there are any issues and I'll work on them

-Jay

guest
You may want to rate the tab now too:
select rating
Wanna post a correction for this tab? Suggest correction