Oops, an error
Loading. Please wait.

Harmonix tab

version 1
version 1

Whole song

4,944 views 1 this week
1 commentread comment
1 2 3 4 5
x 5
add to favorites
×
Save as Personal and add changes to this tab that will be seen only by you. Learn more ›
×
You can save this tab as Personal to edit and correct it or add notes. All changes will be seen only by you. Learn more »
launch autoscroll
font size
0
reset
how to read this tab
guitar tuner
edit
Autoscroll
slow
fast
+/-
esc
set tempo
stop
Author
OK SO THIS IS IN STANDARD TUNING
ALL TH 12S AND 7S ARE IN HARMONIXS 
WICH MEANS YOU JUST REST YOUR FINGER OVER
THAT FRET AND STRUM IT 
AND G AND EM ARE THE BARE CHORDS
I THINK THATS ALL SO ANY QUESTIONS ASK ME

INTRO
E--------------------0-1-------4--]
B------2-----------2-----3-0---3--]
G----2--2--------2-------------4--]
D--2-----2-----2------------------]
A-0----------0--------------------]
E---------------------------------]

DRUMS

E--12--7--]
B--12--7--]
G--12--7--] 4XS
D---------]
A---------]
E---------]

We could have been the best of friends.
Now I'll never see this place again.
So please, please, please, don't wait for me to try and get it together.
Please don't wait for me to reappear, cause I'm not here.

E--12-12-12-12-12-12-12-12-7-7-7-7-7-7-7-7--7----12---7-7-7-7-7-7-7-7--]
B--12-12-12-12-12-12-12-12-7-7-7-7-7-7-7-7--7-7----12-7-7-7-7-7-7-7-7--]
G--12-12-12-12-12-12-12-12-7-7-7-7-7-7-7-7--7--7------7-7-7-7-7-7-7-7--]
D----------------------------------------------------------------------]
A----------------------------------------------------------------------]
E----------------------------------------------------------------------]
STRUM IT DDD ON THIS PART THEN THE NEZT PART JUST STRUM IT ONCE
                  G     EM
Because, I won't wait around for    
    G                  EM
the grass to grow back now.
         G     EM
I won't wait around
           G              EM
 for your vaults to open, let me in somehow

STRUM ONE TIME EACH
G EM
G EM 
G EM 
G EM 

E--12--7--]     E--12-]
B--12--7--]     B--12-]
G--12--7--]3XS  G--12-]1X LET IT RING OUT
D---------]     D-----]
A---------]     A-----]
E---------]     E-----]

I think about it every day.
When you complain when you walk away.
E--12-12-12-12-12-12-12-12-7-7-7-7-7-7-7-7--7----12---7-7-7-7-7-7-7-7--]
B--12-12-12-12-12-12-12-12-7-7-7-7-7-7-7-7--7-7----12-7-7-7-7-7-7-7-7--]
G--12-12-12-12-12-12-12-12-7-7-7-7-7-7-7-7--7--7------7-7-7-7-7-7-7-7--]
D----------------------------------------------------------------------]
A----------------------------------------------------------------------]
E----------------------------------------------------------------------]
             G    EM
And I won't wait around
         G               EM
for the ice to thaw out now.
         G     EM
I won't wait around 
          G                 EM
for your heart to open, and let me in somehow.

STRUM ONE TIME EACH
G EM
G EM 
G EM 
G EM 
    G                  EM 
And I won't fuckin fold, Oh oh, Oh oh
G                         EM 
For perfection's in your own, I hope. Oh oh.
    G                  EM
And I won't wait around.

Oh oh, Oh oh
      G                 EM
For you to figure it out.

E--12--7--]
B--12--7--]
G--12--7--] 15XS
D---------]
A---------]
E---------]

-CGALLA0307

            
            
Suggest correction
Creating personal tab
Creating personal tab
You can edit any tab online and save it as your Personal.

You can edit, replace or remove any tab part or add personal notes – all changes will be seen only by you.

Personal tabs can be accessed anytime from any device, even offline.
Learn more »
comments
print report bad tab
1 comment total.
+1 reply
graph_sas 1,306 Nov 15, 2010 05:32 AM

I think you miss the bridge chords:

C-D-C-D and then G-Em.. (etc)

I hope you see it

Thnaks for your tab I like this song!

guest
You may want to rate the tab now too:
select rating
Wanna post a correction for this tab? Suggest correction