Oops, an error
Loading. Please wait.

Smoking Outside chords

by Susto
334 views 30 this week
no commentswrite comment
1 2 3 4 5
3 more votes to show rating
add to favorites
×
Save as Personal and add changes to this tab that will be seen only by you. Learn more ›
×
You can save this tab as Personal to edit and correct it or add notes. All changes will be seen only by you. Learn more »
launch autoscroll
font size
0
reset
transpose
0
reset
display chords
guitar tuner
edit
Autoscroll
slow
fast
+/-
esc
set tempo
stop
Author
Difficulty
Strumming
There is no strumming pattern for this song yet. and get +5 IQ
The chord progression for this song was a little tricky to figure out, on account of the subtle E chord 
at the end of the 2nd measure and the B chord at the end of the 4th measure of the verses. Just one beat per 
chord. I watched this Audiotree video on YouTube to confirm and correct everything. 
https://www.youtube.com/watch?v=tYNVpjsmCoU
If anyone can point out any changes or improvements, please do.
Hope y'all enjoy.

[Intro]
          D                           E      A                           B
Chords:   1 - 2 - 3 - 4 - 1 - 2 - 3 - 4      1 - 2 - 3 - 4 - 1 - 2 - 3 - 4   (x2)

          D                                           E    A                   B
e|------------------------------------------------------------------------------|
B|------------------------------------------------------------------------------|
G|-------------2-----2h4--2----------2-----2h4--2---2h4/7--7/6--6/4--4/6--------|
D|--2--2--2h4-----4-------------2h4-----4---------------------------------------|
A|------------------------------------------------------------------------------|
E|------------------------------------------------------------------------------|

          D                                           E    A                                 B
e|--------------------------------------------------------------------------------------------|
B|--------------------------------------------------------------------------------------------|
G|-------------2-----2h4--2----------2-----2h4--2---2h4/7--7/6--6/4--4/6--6--6/4--4p2---------|
D|--2--2--2h4-----4-------------2h4-----4-----------------------------------------------------|
A|--------------------------------------------------------------------------------------------|
E|--------------------------------------------------------------------------------------------|

[Verse]
D                                                 E        A
Ashley's smokin' a bong, it's a Tuesday night for rock and roll
B              D                                                E        A
 She's got her black leather pants on, it's a Tuesday night for rock and roll
      B                     D                             A
And I tell her all the time,   you can rock and roll any day
       B                     D                          A
Yeah I tell her all the time,   just keep it to once a day

[Chorus]
                    D                      B           
She says "this is a great song, I love you right now, 
             D        B                    A
Feels better outside,    than it did in there"

D                           E    A                           B
1 - 2 - 3 - 4 - 5 - 6 - 7 - 8    1 - 2 - 3 - 4 - 5 - 6 - 7 - 8    (x2)

          D                                           E    A                                 B
e|--------------------------------------------------------------------------------------------|
B|--------------------------------------------------------------------------------------------|
G|-------------2-----2h4--2----------2-----2h4--2---2h4/7--7/6--6/4--4/6--6--6/4--4p2---------|
D|--2--2--2h4-----4-------------2h4-----4-----------------------------------------------------|
A|--------------------------------------------------------------------------------------------|
E|--------------------------------------------------------------------------------------------|

[Verse]
      D                                                E        A
She's softly learnin to sing, it's a Tuesday night for rock and roll
B        D                                               E        A
 She's a hieroglyph on guitar strings, Tuesday night for rock and roll
      B                      D                             A
And I tell her all the time,   you can rock and roll any day
       B                      D                          A
Yeah I tell her all the time,   just keep it to once a day

                    D                      B           
She says "this is a great song, I love you right now, 
             D        B                   A
Feels better outside,    than it did in there"

[Solo]
e|-----9----9----10---(9)-----------------------------------------------------------|
B|-------10---10-------------10/9--9/7--7/5--5--5-5---------------------------------|
G|---------------------------------------------------6/7/6--------------------------|
D|----------------------------------------------------------------------------------|
A|----------------------------------------------------------------------------------|
E|----------------------------------------------------------------------------------|
                               
e|--------9----9--10----10--9-----5/9-9/7--7--7/5--5--5/4---------------------------|
B|---3/10---10-------10-------------------------------------7/5--5--5---------------|
G|---------------------------------------------------------------------6------6-----|
D|----------------------------------------------------------------------------------|
A|----------------------------------------------------------------------------------|
E|----------------------------------------------------------------------------------|

          D                                           E    A                   B
e|------------------------------------------------------------------------------|
B|------------------------------------------------------------------------------|
G|-------------2-----2h4--2----------2-----2h4--2---2h4/7--7/6--6/4--4/6--------|
D|--2--2--2h4-----4-------------2h4-----4---------------------------------------|x2
A|------------------------------------------------------------------------------|
E|------------------------------------------------------------------------------|

          D                                           E    A                   B
e|------------------------------------------------------------------------------|
B|------------------------------------------------------------------------------|
G|------------------------------------------------------------------------------|
D|------------------------------------------------------------------------------|x2
A|-------------0-----0h2--0----------0-----0h2--0---0h2/5--5/4--4/2--2/4--------|
E|--0--0--0h2-----2-------------0h2-----2---------------------------------------|

The rest of the song is essentially different versions of everything I tabbed in the Solo section.
If there are any corrections y'all think I can make, don't be shy, comments are appreciated.



************************************

| h    Hammer-on
| /    Slide up
| p    Pull-off
| (n)  Ghost note

************************************

            
            
Suggest correction
Creating personal tab
Creating personal tab
You can edit any tab online and save it as your Personal.

You can edit, replace or remove any tab part or add personal notes – all changes will be seen only by you.

Personal tabs can be accessed anytime from any device, even offline.
Learn more »
Give kudos to tab author, rate the tab!
1 2 3 4 5
comments
print report bad tab
guest
You may want to rate the tab now too:
select rating
Wanna post a correction for this tab? Suggest correction