Oops, an error
Loading. Please wait.

If You Cant Give Me Love bass

292 views 3 this week
no commentswrite comment
1 2 3 4 5
2 more votes to show rating
add to favorites
×
Save as Personal and add changes to this tab that will be seen only by you. Learn more ›
×
You can save this tab as Personal to edit and correct it or add notes. All changes will be seen only by you. Learn more »
launch autoscroll
font size
0
reset
guitar tuner
edit
Autoscroll
slow
fast
+/-
esc
set tempo
stop
Author
If You Can’t Give Me Love
1978 release for American Suzi Quatro. Reached number 4 UK Charts
Bass performance Suzi Quatro. Tab by bass50611. This is a great single from 
Suzi. As I see the bass line, and how I would play it on stage.  Have fun.

Intro: (GUITAR ONLY – NO BASS

Verse 1:
 Well I’ve seen you before on the discotheque floor, you were driving me 
G|-----------------------------------------------------------------------|
D|-----------------------GUITAR & VOCALS ONLY----------------------------|
A|------------------------------NO BASS----------------------------------|
E|-----------------------------------------------------------------------|

Out of my mine...Oh, but I could have swore that I saw something more in
G|-----------------------------------------------------------------------|
D|-----------------------GUITAR & VOCALS ONLY----------------------------|
A|------------------------------NO BASS----------------------------------|
E|-----------------------------------------------------------------------|

Your eyes...Although you...
G|------------------------------------------------------------------------|
D|-------------------------------------------------------------7--------7-|
A|-------------------------7--------7--------9--------9---5--5-----5--5---|
E|--------------------5--5-----5--5-----7--7-----7--7---------------------|

G|-----------------------------------------------------------------------|
D|------------------------------------------------------------7--------7-|
A|------7--------7--------7--------7--------9--------9---5--5-----5--5---|
E|-5--5-----5--5-----5--5-----5--5-----7--7-----7--7---------------------|

G|-------------------|
D|-------------------|
A|------------7--7-7-|
E|-5--5-5--5---------|

Pre-Chorus:
G|------------------------------------------------------------------|
D|------------------------------------------------------------------|
A|------7--------7--------7--------9--------7--------7--------7-----|
E|-7--7-----7--7-----7--7-----5--5-----7--7-----7--7-----7--7-----5-|

Chorus 1:
G|--------------------------------------------------7-------9-|
D|-------------7-----------------7----------------7-------9---|
A|-----------7---9---7--4------7----9---7--4--5--------7------|
E|-5--5--5-----------------5----------------------------------|

G|------7------9-|
D|----7------9---|
A|-5------7------|
E|---------------|

Interlude 1:                                                        (Break)
G|------------------------------------------------------------------------|
D|------7-----------------7-----------------7-----------------7-----------|
A|----7----9---7--4-----7----9---7--4-----7----9---7--4-----7-----5--5--7-|
E|-5-----------------5-----------------5-----------------5----------------|
 
Verse 2:
G|-----------------------------------------------------------------------|
D|------------------------------------------7--------7-------------------|
A|------7--------7--------9--------9---5--5-----5--5----------7--------7-|
E|-5--5-----5--5-----7--7-----7--7-----------------------5--5-----5--5---|

G|------------------------------------------------------------------------|
D|------------------------------------------7--------7--------------------|
A|------7--------7--------9--------9---5--5-----5--5---------------7--7-7-|
E|-5--5-----5--5-----7--7-----7--7----------------------5--5-5--5---------|

Pre-Chorus:
G|------------------------------------------------------------------|
D|------------------------------------------------------------------|
A|------7--------7--------7--------9--------7--------7--------7-----|
E|-7--7-----7--7-----7--7-----5--5-----7--7-----7--7-----7--7-----5-|

Chorus 2:
G|--------------------------------------------------7-------9-|
D|-------------7-----------------7----------------7-------9---|
A|-----------7---9---7--4------7----9---7--4---5-------7------|
E|-5--5--5-----------------5----------------------------------|

G|------7------9-|
D|----7------9---|
A|-5------7------|
E|---------------|

Interlude 2:
G|-------------------------------------------7-------9-------7-------|
D|------7-----------------7----------------7-------9-------7-------9-|
A|----7---9---7--4------7----9---7--4---5-------7-------5-------7----|
E|-5-----------------5-----------------------------------------------|

Pre-Chorus:                                            (Play This x2)
G|------------------------------------------------------------------|
D|------------------------------------------------------------------|
A|------7--------7--------7--------9--------7--------7--------7-----|
E|-7--7-----7--7-----7--7-----5--5-----7--7-----7--7-----7--7-----5-|

Outro:
G|--------------------------------------------------7-------9-|
D|-------------7-----------------7----------------7-------9---|
A|-----------7---9---7--4------7----9---7--4--5--------7------|
E|-5--5--5-----------------5----------------------------------|

G|------7------9-------------------------------------|
D|----7------9---------7-----------------7-----------|
A|-5------7----------7----9---7--4-----7----9---7--4-|
E|----------------5-----------------5----------------|

                                         (Repeat This Bit To Fade/End)
G|------7------9-------7-------9-------------------------------------|
D|----7------9-------7-------9---------7-----------------7-----------|
A|-5------7-------5-------7----------7----9---7--4-----7----9---7--4-|
E|--------------------------------5-----------------5----------------|

            
            
Suggest correction
Creating personal tab
Creating personal tab
You can edit any tab online and save it as your Personal.

You can edit, replace or remove any tab part or add personal notes – all changes will be seen only by you.

Personal tabs can be accessed anytime from any device, even offline.
Learn more »
Give kudos to tab author, rate the tab!
1 2 3 4 5
comments
print report bad tab
guest
You may want to rate the tab now too:
select rating
Wanna post a correction for this tab? Suggest correction