Oops, an error
Loading. Please wait.

Dont Fall Asleep Horror Pt 2 tab

version 1
version 1

Whole song

Interactive

3,630 views 1 this week
no commentswrite comment
1 2 3 4 5
1 last vote to show rating
add to favorites
×
Save as Personal and add changes to this tab that will be seen only by you. Learn more ›
×
You can save this tab as Personal to edit and correct it or add notes. All changes will be seen only by you. Learn more »
launch autoscroll
font size
0
reset
how to read this tab
guitar tuner
edit
Autoscroll
slow
fast
+/-
esc
set tempo
stop
#----------------------------------PLEASE NOTE---------------------------------#
#This file is the author's own work and represents their interpretation of the #
#song. You may only use this file for private study, scholarship, or research. #
#------------------------------------------------------------------------------#

DON'T FALL ASLEEP (HORROR PT. 2)
As recorded by Swallow The Sun
(From the 2006 Album HOPE)

Transcribed by Danny Heater
Transfered to tab by Jerry brown jr.
Blackritual0@yahoo.com
        

Words and Music by Juha Raivio

Gtr I (C G C F A D) - 'Untitled'
Gtr II (C G C F A D) - 'Untitled'
Gtr III (C G C F A D) - 'Untitled'
Gtr IV (C G C F A D) - 'Untitled'

  Q=110
 4/4
  Gtr II
  E  E  E  E  E  E  E  E    E  E  E  E  E E E E
|------------------------|----------------------|
|------------------------|----------------------|
|------------------------|----------------------|
|------------------------|----------------------|
|-9-10-10-10-10-10-10-10-|-10-10-10-10-10-5-5-5-|
|------------------------|----------------------|
|
| Gtr I
| E  E  E  E  E  E  E  E    E  E  E  E  E E E E
|------------------------|----------------------|
|------------------------|----------------------|
|------------------------|----------------------|
|------------------------|----------------------|
|-5--7--7--7--7--7--7--7-|--7--7--7--7--7-2-2-2-|
|------------------------|----------------------|


  E E E E E E E E   E E E E E E E E
|-----------------|-----------------|
|-----------------|-----------------|
|-----------------|-----------------|
|-----------------|-----------------|
|-5-7-7-7-7-7-7-7-|-7-7-7-7-7-9-9-9-|
|-----------------|-----------------|
|
| E E E E E E E E   E E E E E E E E
|-----------------|-----------------|
|-----------------|-----------------|
|-----------------|-----------------|
|-----------------|-----------------|
|-2-3-3-3-3-3-3-3-|-3-3-3-3-3-5-5-5-|
|-----------------|-----------------|


  E  E  E  E  E  E  E  E    E  E  E  E  E E E E
|------------------------|----------------------|
|------------------------|----------------------|
|------------------------|----------------------|
|------------------------|----------------------|
|-9-10-10-10-10-10-10-10-|-10-10-10-10-10-5-5-5-|
|------------------------|----------------------|
|
| E  E  E  E  E  E  E  E    E  E  E  E  E E E E
|------------------------|----------------------|
|------------------------|----------------------|
|------------------------|----------------------|
|------------------------|----------------------|
|-5--7--7--7--7--7--7--7-|--7--7--7--7--7-2-2-2-|
|------------------------|----------------------|


  E E E E E E E E   E E E E E E E E
|-----------------|-----------------|
|-----------------|-----------------|
|-----------------|-----------------|
|-----------------|-----------------|
|-5-3-3-3-3-3-3-7-|-7-7-7-7-7-9-9-9-|
|-----------------|-----------------|
|
| E E E E E E E E   E E E E E E E E
|-----------------|-----------------|
|-----------------|-----------------|
|-----------------|-----------------|
|-----------------|-----------------|
|-2-0-0-0-0-0-0-3-|-3-3-3-3-3-5-5-5-|
|-----------------|-----------------|


   E  E  E  E  E  E  E  E    E  E  E  E  E E E E
|-------------------------|----------------------|
|-------------------------|----------------------|
|-11-12-12-12-12-12-12-12-|-12-12-12-12-12-7-7-7-|
|-------------------------|----------------------|
|--9-10-10-10-10-10-10-10-|-10-10-10-10-10-5-5-5-|
|-------------------------|----------------------|
|
|  E  E  E  E  E  E  E  E    E  E  E  E  E E E E
|-------------------------|----------------------|
|-------------------------|----------------------|
|-------------------------|----------------------|
|-------------------------|----------------------|
|--5--7--7--7--7--7--7--7-|--7--7--7--7--7-2-2-2-|
|-------------------------|----------------------|


  E E E E E E E E   E E E E E  E  E  E
|-----------------|--------------------|
|-----------------|--------------------|
|-7-9-9-9-9-9-9-9-|-9-9-9-9-9-11-11-11-|
|-----------------|--------------------|
|-5-7-7-7-7-7-7-7-|-7-7-7-7-7--9--9--9-|
|-----------------|--------------------|
|
| E E E E E E E E   E E E E E  E  E  E
|-----------------|--------------------|
|-----------------|--------------------|
|-----------------|--------------------|
|-----------------|--------------------|
|-2-3-3-3-3-3-3-3-|-3-3-3-3-3--5--5--5-|
|-----------------|--------------------|


   E  E  E  E  E  E  E  E    E  E  E  E  E E E E
|-------------------------|----------------------|
|-------------------------|----------------------|
|-11-12-12-12-12-12-12-12-|-12-12-12-12-12-7-7-7-|
|-------------------------|----------------------|
|--9-10-10-10-10-10-10-10-|-10-10-10-10-10-5-5-5-|
|-------------------------|----------------------|
|
|  E  E  E  E  E  E  E  E    E  E  E  E  E E E E
|-------------------------|----------------------|
|-------------------------|----------------------|
|-------------------------|----------------------|
|-------------------------|----------------------|
|--5--7--7--7--7--7--7--7-|--7--7--7--7--7-2-2-2-|
|-------------------------|----------------------|


  E E E E E E E E   E E E E E E E E
|-----------------|-----------------||
|-----------------|-----------------||
|-7-5-5-5-5-5-5-9-|-9-9-9-9-9-9-9-9-||
|-----------------|-----------------||
|-5-3-3-3-3-3-3-7-|-7-7-7-7-7-7-7-7-||
|-----------------|-----------------||
|
| E E E E E E E E   E E E E E E E E
|-----------------|-----------------||
|-----------------|-----------------||
|-----------------|-----------------||
|-----------------|-----------------||
|-2-0-0-0-0-0-0-3-|-3-3-3-3-3-3-3-3-||
|-----------------|-----------------||


  Gtr IV
  E  E E E  E E E E    E  E  E E  E E E E
|------0------0-----|--0-------0------0---|
|----0---0------0---|-----0---------0---0-|
|-------------------|---------------------|
|-2---------2-----2-|--------2----4-------|
|-------------------|---------------------|
|-------------------|---------------------|
|
| Gtr III
| Q.     Q.     Q     +E  Q.      H
|-------------------|---------------------|
|-8------8------8---|-(8)-8------10-------|
|-9------9------9---|-(9)-9------11-------|
|-------------------|---------------------|
|-------------------|---------------------|
|-------------------|---------------------|
|
| Gtr I
| >
| W                   +W
|-------------------|---------------------|
|-5-----------------|-(5)-----------------|
|-------------------|---------------------|
|-2-----------------|-(2)-----------------|
|-2-----------------|-(2)-----------------|
|-2-----------------|-(2)-----------------|


   E  E E E  E E E E    E  E  E E  E E E E
|-------0------0-----|--0-------0------0---|
|-----0---0------0---|-----0---------0---0-|
|--------------------|---------------------|
|--2---------2-----2-|--------2----4-------|
|--------------------|---------------------|
|--------------------|---------------------|
|
|  Q.     Q.     Q     +E  Q.      H
|--------------------|---------------------|
|-12------7------7---|-(7)-7------10-------|
|-12------7------7---|-(7)-7------11-------|
|--------------------|---------------------|
|--------------------|---------------------|
|--------------------|---------------------|
|
| +W                   +W
|--------------------|---------------------|
|-(5)----------------|-(5)-----------------|
|--------------------|---------------------|
|-(2)----------------|-(2)-----------------|
|-(2)----------------|-(2)-----------------|
|-(2)----------------|-(2)-----------------|


  E  E E E  E E E E    E  E  E E  E E E E
|------0------0-----|--0-------0------0---|
|----0---0------0---|-----0---------0---0-|
|-------------------|---------------------|
|-5---------5-----5-|--------5----7-------|
|-------------------|---------------------|
|-------------------|---------------------|
|
| Q.     Q.     Q     +E  Q.      H
|-------------------|---------------------|
|-8------8------8---|-(8)-8------10-------|
|-9------9------9---|-(9)-9------11-------|
|-------------------|---------------------|
|-------------------|---------------------|
|-------------------|---------------------|


   E  E E E  E E E E    E  E  E E  E E E E
|-------0------0-----|--0-------0------0---|
|-----0---0------0---|-----0---------0---0-|
|--------------------|---------------------|
|--5---------5-----5-|--------4----7-------|
|--------------------|---------------------|
|--------------------|---------------------|
|
|  Q.     Q.     Q     +E  Q.      H
|--------------------|---------------------|
|-12------7------7---|-(7)-7------10-------|
|-12------7------7---|-(7)-7------11-------|
|--------------------|---------------------|
|--------------------|---------------------|
|--------------------|---------------------|


    E  E E E  E E E E    E  E  E E  E E E E
||-------0------0-----|--0-------0------0---|
||o----0---0------0---|-----0---------0---0-|
||--------------------|---------------------|
||--2---------2-----2-|--------2----4-------|
||o-------------------|---------------------|
||--------------------|---------------------|
|
|   Q.     Q.     Q     +E  Q.      H
||--------------------|---------------------|
||o-8------8------8---|-(8)-8------10-------|
||--9------9------9---|-(9)-9------11-------|
||--------------------|---------------------|
||o-------------------|---------------------|
||--------------------|---------------------|


   E  E E E  E E E E    E  E  E E  E E E E
|-------0------0-----|--0-------0------0----|
|-----0---0------0---|-----0---------0---0--|
|--------------------|----------------------|
|--2---------2-----2-|--------2----4--------|
|--------------------|----------------------|
|--------------------|----------------------|
|
|  Q.     Q.     Q     +E  Q.      H
|--------------------|----------------------|
|-12------7------7---|-(7)-7------10--------|
|-12------7------7---|-(7)-7------11--------|
|--------------------|----------------------|
|--------------------|----------------------|
|--------------------|----------------------|


  E  E E E  E E E E    E  E  E E  E E E E    E  E E E  E E E E
|------0------0-----|--0-------0------0---|-------0------0-----|
|----0---0------0---|-----0---------0---0-|-----0---0------0---|
|-------------------|---------------------|--------------------|
|-5---------5-----5-|--------5----7-------|--5---------5-----5-|
|-------------------|---------------------|--------------------|
|-------------------|---------------------|--------------------|
|
| Q.     Q.     Q     +E  Q.      H          Q.     Q.     Q
|-------------------|---------------------|--------------------|
|-8------8------8---|-(8)-8------10-------|-12------7------7---|
|-9------9------9---|-(9)-9------11-------|-12------7------7---|
|-------------------|---------------------|--------------------|
|-------------------|---------------------|--------------------|
|-------------------|---------------------|--------------------|
|
| Gtr I
| W                    W                     W
|-------------------|---------------------|--------------------|
|-------------------|---------------------|--------------------|
|-------------------|---------------------|--------------------|
|-------------------|---------------------|--------------------|
|-------------------|---------------------|--------------------|
|-------------------|---------------------|--------------------|


 1.                      2.
   E  E  E E  E E E E      E  E  E E   E E  E  E
|--0-------0------0----||--0-------0--------0----|
|-----0---------0---0-o||-----0----------0-----0-|
|----------------------||------------------------|
|--------4----7--------||--------4-----7---------|
|---------------------o||------------------------|
|----------------------||------------------------|
|
| +E  Q.      H            E  Q.       H
|----------------------||------------------------|
|-(7)-7------10-------o||-(7)-7-------10---------|
|-(7)-7------11--------||-(7)-7-------11---------|
|----------------------||------------------------|
|---------------------o||------------------------|
|----------------------||------------------------|
|
|  W                       H           Q    E  E
|----------------------||------------------------|
|---------------------o||------------------------|
|----------------------||------------/12---12s11-|
|----------------------||------------------------|
|---------------------o||------------------------|
|----------------------||------------------------|


   E  E E E  E E E E     E  E  E E  E E   E        E
|-------0------0-----|---0-------0--------0-----------|
|-----0---0------0---|------0---------0------------0--|
|--------------------|--------------------------------|
|--2---------2-----2-|---------2----4-----------------|
|--------------------|--------------------------------|
|--------------------|--------------------------------|
|
|  Q.     Q.     Q      +E  Q.      H
|--------------------|--------------------------------|
|--8------8------8---|--(8)-8------10-----------------|
|--9------9------9---|--(9)-9------11-----------------|
|--------------------|--------------------------------|
|--------------------|--------------------------------|
|--------------------|--------------------------------|
|
|  W                    +H          Q    +E       +E
|--------------------|--------------------------------|
|--------------------|--------------------------------|
|-11-----------------|-(11)--------11---(11)pb12-(11)-|
|--------------------|--------------------------------|
|--------------------|--------------------------------|
|--------------------|--------------------------------|


   E  E E E  E E E E    E  E  E E   E E E E
|-------0------0-----|--0-------0-------0---|
|-----0---0------0---|-----0----------0---0-|
|--------------------|----------------------|
|--2---------2-----2-|--------2-----4-------|
|--------------------|----------------------|
|--------------------|----------------------|
|
|  Q.     Q.     Q     +E  Q.       H
|--------------------|----------------------|
|-12------7------7---|-(7)-7-------10-------|
|-12------7------7---|-(7)-7-------11-------|
|--------------------|----------------------|
|--------------------|----------------------|
|--------------------|----------------------|
|
|  W                   +H           H
|--------------------|----------------------|
|--------------------|----------------------|
|--9-----------------|-(9)--------/12-------|
|--------------------|----------------------|
|--------------------|----------------------|
|--------------------|----------------------|


   E  E  E  E  E E E E     E  E  E E  E E   E        E
|--------0-------0-----|---0-------0--------0-----------|
|-----0-----0------0---|------0---------0------------0--|
|----------------------|--------------------------------|
|--5-----------5-----5-|---------5----7-----------------|
|----------------------|--------------------------------|
|----------------------|--------------------------------|
|
|  Q.       Q.     Q      +E  Q.      H
|----------------------|--------------------------------|
|--8--------8------8---|--(8)-8------10-----------------|
|--9--------9------9---|--(9)-9------11-----------------|
|----------------------|--------------------------------|
|----------------------|--------------------------------|
|----------------------|--------------------------------|
|
|  E  E  H.               +H          Q    +E       +E
|----------------------|--------------------------------|
|----------------------|--------------------------------|
|-12s11-11-------------|-(11)--------11---(11)pb12-(11)-|
|----------------------|--------------------------------|
|----------------------|--------------------------------|
|----------------------|--------------------------------|


   E  E E E  E E E E    E  E  E E  E E E E
|-------0------0-----|--0-------0------0---|
|-----0---0------0---|-----0---------0---0-|
|--------------------|---------------------|
|--5---------5-----5-|--------4----7-------|
|--------------------|---------------------|
|--------------------|---------------------|
|
|  Q.     Q.     Q     +E  Q.      H
|--------------------|---------------------|
|-12------7------7---|-(7)-7------10-------|
|-12------7------7---|-(7)-7------11-------|
|--------------------|---------------------|
|--------------------|---------------------|
|--------------------|---------------------|
|
|  W                   +H.             E E
|--------------------|---------------------|
|--------------------|---------------------|
|--7-----------------|-(7)-------------7s4-|
|--------------------|---------------------|
|--------------------|---------------------|
|--------------------|---------------------|


  E  E E E  E E E E    E  E  E E  E E E E
|------0------0-----|--0-------0------0---|
|----0---0------0---|-----0---------0---0-|
|-------------------|---------------------|
|-2---------2-----2-|--------2----4-------|
|-------------------|---------------------|
|-------------------|---------------------|
|
| Q.     Q.     Q     +E  Q.      H
|-------------------|---------------------|
|-8------8------8---|-(8)-8------10-------|
|-9------9------9---|-(9)-9------11-------|
|-------------------|---------------------|
|-------------------|---------------------|
|-------------------|---------------------|
|
| >
| W                   +W
|-------------------|---------------------|
|-------------------|---------------------|
|-4-----------------|-(4)-----------------|
|-------------------|---------------------|
|-------------------|---------------------|
|-------------------|---------------------|


   E  E E E  E E E E    E  E  E E  E E E E
|-------0------0-----|--0-------0------0---|
|-----0---0------0---|-----0---------0---0-|
|--------------------|---------------------|
|--2---------2-----2-|--------2----4-------|
|--------------------|---------------------|
|--------------------|---------------------|
|
|  Q.     Q.     Q     +E  Q.      H
|--------------------|---------------------|
|-12------7------7---|-(7)-7------10-------|
|-12------7------7---|-(7)-7------11-------|
|--------------------|---------------------|
|--------------------|---------------------|
|--------------------|---------------------|
|
|  W                    W
|--------------------|---------------------|
|--------------------|---------------------|
|--------------------|---------------------|
|--------------------|---------------------|
|--------------------|---------------------|
|--------------------|---------------------|


  E  E E E  E E E E    E  E  E E  E E E E
|------0------0-----|--0-------0------0---|
|----0---0------0---|-----0---------0---0-|
|-------------------|---------------------|
|-5---------5-----5-|--------5----7-------|
|-------------------|---------------------|
|-------------------|---------------------|
|
| Q.     Q.     Q     +E  Q.      H
|-------------------|---------------------|
|-8------8------8---|-(8)-8------10-------|
|-9------9------9---|-(9)-9------11-------|
|-------------------|---------------------|
|-------------------|---------------------|
|-------------------|---------------------|
|
| W                    W
|-------------------|---------------------|
|-------------------|---------------------|
|-------------------|---------------------|
|-------------------|---------------------|
|-------------------|---------------------|
|-------------------|---------------------|


   E  E E E  E E E E    E  E  E E  E E E E
|-------0------0-----|--0-------0------0---||
|-----0---0------0---|-----0---------0---0-||
|--------------------|---------------------||
|--5---------5-----5-|--------4----7-------||
|--------------------|---------------------||
|--------------------|---------------------||
|
|  Q.     Q.     Q     +E  Q.      H
|--------------------|---------------------||
|-12------7------7---|-(7)-7------10-------||
|-12------7------7---|-(7)-7------11-------||
|--------------------|---------------------||
|--------------------|---------------------||
|--------------------|---------------------||
|
|  W                    H          Q   Q
|--------------------|---------------------||
|--------------------|---------------------||
|--------------------|---------------------||
|--------------------|-------------0---0---||
|--------------------|-------------0---0---||
|--------------------|-------------0---0---||


 horus
  Gtr II
   T        T        T        T          T         T        T        T
   S S S S  S S S S  S S S S  S S S S    S  S S S  S S S S  S S S S  S S S S
|-------------------------------------|--------------------------------------|
|-12p0h5h7-12p0h5h7-12p0h5h7-12p0h5h7-|-12p=0h5h7-12p0h5h7-12p0h5h7-12p0h5h7-|
|-------------------------------------|--------------------------------------|
|-------------------------------------|--------------------------------------|
|-------------------------------------|--------------------------------------|
|-------------------------------------|--------------------------------------|
|
| Gtr I
|  W                                    +W
|-------------------------------------|--------------------------------------|
|-------------------------------------|--------------------------------------|
|-------------------------------------|--------------------------------------|
|--2----------------------------------|-(2)----------------------------------|
|--2----------------------------------|-(2)----------------------------------|
|--2----------------------------------|-(2)----------------------------------|


   T         T        T        T          T         T        T        T
   S  S S S  S S S S  S S S S  S S S S    S  S S S  S S S S  S S S S  S S S S
|--------------------------------------|--------------------------------------|
|-12p=0h5h7-12p0h5h7-12p0h5h7-12p0h5h7-|-12p=0h5h7-12p0h5h7-12p0h5h7-12p0h5h7-|
|--------------------------------------|--------------------------------------|
|--------------------------------------|--------------------------------------|
|--------------------------------------|--------------------------------------|
|--------------------------------------|--------------------------------------|
|
| +W                                     +H                  Q        Q
|--------------------------------------|--------------------------------------|
|--------------------------------------|--------------------------------------|
|--------------------------------------|---------------------7--------7-------|
|-(2)----------------------------------|-(2)-----------------7--------7-------|
|-(2)----------------------------------|-(2)-----------------5--------5-------|
|-(2)----------------------------------|-(2)-----------------0--------0-------|


   T        T        T        T          T        T        T        T
   S S S S  S S S S  S S S S  S S S S    S S S S  S S S S  S S S S  S S S S
|-12p0h5h7-12p0h5h7-12p0h5h7-12p0h5h7-|-12p0h5h7-12p0h5h7-12p0h5h7-12p0h5h7-|
|-------------------------------------|-------------------------------------|
|-------------------------------------|-------------------------------------|
|-------------------------------------|-------------------------------------|
|-------------------------------------|-------------------------------------|
|-------------------------------------|-------------------------------------|
|
|  E   E    E   E    E   E    E   E      E   E    E   E    E   E    E   E
|-------------------------------------|-------------------------------------|
|-------------------------------------|-------------------------------------|
|--2---2----2---2----2---2----2---2---|--2---2----2---2----2---2----2---2---|
|--2---2----2---2----2---2----2---2---|--2---2----2---2----2---2----2---2---|
|--0---0----0---0----0---0----0---0---|--0---0----0---0----0---0----0---0---|
|-------------------------------------|-------------------------------------|


   T        T        T        T          T        T        T        T
   S S S S  S S S S  S S S S  S S S S    S S S S  S S S S  S S S S  S S S S
|-12p0h5h7-12p0h5h7-12p0h5h7-12p0h5h7-|-------------------------------------|
|-------------------------------------|-------------------------------------|
|-------------------------------------|-12p0h5h7-12p0h5h7-12p0h5h7-12p0h7h9-|
|-------------------------------------|-------------------------------------|
|-------------------------------------|-------------------------------------|
|-------------------------------------|-------------------------------------|
|
|  E   E    E   E    E   E    E   E      E   E    E   E    E   E    E   E
|-------------------------------------|-------------------------------------|
|-------------------------------------|-------------------------------------|
|--5---5----5---5----5---5----5---5---|-------------------------------------|
|--5---5----5---5----5---5----5---5---|--1---1----1---1----1---1----1---1---|
|--3---3----3---3----3---3----3---3---|--1---1----1---1----1---1----1---1---|
|-------------------------------------|--1---1----1---1----1---1----1---1---|


     T        T        T        T          T        T        T        T
     S S S S  S S S S  S S S S  S S S S    S S S S  S S S S  S S S S  S S S S
||--------------------------------------|--------------------------------------|
||o-12p0h5h7-12p0h5h7-12p0h5h7-12p0h5h7-|-12p0h5h7-12p0h5h7-12p0h5h7-12p0h5h7--|
||--------------------------------------|--------------------------------------|
||--------------------------------------|--------------------------------------|
||o-------------------------------------|--------------------------------------|
||--------------------------------------|--------------------------------------|
|
|    E   E    E   E    E   E    E   E      E   E    E   E    E   E    E   E
||--------------------------------------|--------------------------------------|
||o-------------------------------------|--------------------------------------|
||--------------------------------------|--------------------------------------|
||---2---2----2---2----2---2----2---2---|--2---2----2---2----0---0----0---0----|
||o--2---2----2---2----2---2----2---2---|--2---2----2---2----0---0----0---0----|
||---2---2----2---2----2---2----2---2---|--2---2----2---2----0---0----0---0----|


   T        T        T        T          T        T        T        T
   S S S S  S S S S  S S S S  S S S S    S S S S  S S S S  S S S S  S S S S
|-------------------------------------|-------------------------------------|
|-12p0h5h7-12p0h5h7-12p0h5h7-12p0h5h7-|-12p0h5h7-12p0h5h7-12p0h5h7-12p0h5h7-|
|-------------------------------------|-------------------------------------|
|-------------------------------------|-------------------------------------|
|-------------------------------------|-------------------------------------|
|-------------------------------------|-------------------------------------|
|
|  E   E    E   E    E   E    E   E      E   E    E   E    E   E    E   E
|-------------------------------------|-------------------------------------|
|-------------------------------------|-------------------------------------|
|-------------------------------------|--------------------7---7----7---7---|
|--2---2----2---2----2---2----2---2---|--2---2----2---2----7---7----7---7---|
|--2---2----2---2----2---2----2---2---|--2---2----2---2----5---5----5---5---|
|--2---2----2---2----2---2----2---2---|--2---2----2---2---------------------|


   T        T        T        T          T        T        T        T
   S S S S  S S S S  S S S S  S S S S    S S S S  S S S S  S S S S  S S S S
|-12p0h5h7-12p0h5h7-12p0h5h7-12p0h5h7-|-12p0h5h7-12p0h5h7-12p0h5h7-12p0h5h7-|
|-------------------------------------|-------------------------------------|
|-------------------------------------|-------------------------------------|
|-------------------------------------|-------------------------------------|
|-------------------------------------|-------------------------------------|
|-------------------------------------|-------------------------------------|
|
|  E   E    E   E    E   E    E   E      E   E    E   E    E   E    E   E
|-------------------------------------|-------------------------------------|
|-------------------------------------|-------------------------------------|
|--2---2----2---2----2---2----2---2---|--2---2----2---2----2---2----2---2---|
|--2---2----2---2----2---2----2---2---|--2---2----2---2----2---2----2---2---|
|--0---0----0---0----0---0----0---0---|--0---0----0---0----0---0----0---0---|
|-------------------------------------|-------------------------------------|


   T        T        T        T          T        T        T        T
   S S S S  S S S S  S S S S  S S S S    S S S S  S S S S  S S S S  S S S S
|-12p0h5h7-12p0h5h7-12p0h5h7-12p0h5h7-|--------------------------------------||
|-------------------------------------|-------------------------------------o||
|-------------------------------------|-12p0h5h7-12p0h5h7-12p0h5h7-12p0h7h9--||
|-------------------------------------|--------------------------------------||
|-------------------------------------|-------------------------------------o||
|-------------------------------------|--------------------------------------||
|
|  E   E    E   E    E   E    E   E      E   E    E   E    E   E    E   E
|-------------------------------------|--------------------------------------||
|-------------------------------------|-------------------------------------o||
|--5---5----5---5----5---5----5---5---|--------------------------------------||
|--5---5----5---5----5---5----5---5---|--1---1----1---1----1---1----1---1----||
|--3---3----3---3----3---3----3---3---|--1---1----1---1----1---1----1---1---o||
|-------------------------------------|--1---1----1---1----1---1----1---1----||


  Gtr IV
    E  E E E  E E E E     E  E  E E  E E   E        E
|--------0------0-----|---0-------0--------0-----------|
|------0---0------0---|------0---------0------------0--|
|---------------------|--------------------------------|
|---2---------2-----2-|---------2----4-----------------|
|---------------------|--------------------------------|
|---------------------|--------------------------------|
|
| Gtr III
|   Q.     Q.     Q      +E  Q.      H
|---------------------|--------------------------------|
|---8------8------8---|--(8)-8------10-----------------|
|---9------9------9---|--(9)-9------11-----------------|
|---------------------|--------------------------------|
|---------------------|--------------------------------|
|---------------------|--------------------------------|
|
| Gtr II
|   >
|   W                    +H          Q    +E       +E
|---------------------|--------------------------------|
|---------------------|--------------------------------|
|-/11-----------------|-(11)--------11---(11)pb12-(11)-|
|---------------------|--------------------------------|
|---2-----------------|--(2)---------------------------|
|---2-----------------|--(2)---------------------------|
    W                    +W


   E  E E E  E E E E    E  E  E E   E E E E
|-------0------0-----|--0-------0-------0---|
|-----0---0------0---|-----0----------0---0-|
|--------------------|----------------------|
|--2---------2-----2-|--------2-----4-------|
|--------------------|----------------------|
|--------------------|----------------------|
|
|  Q.     Q.     Q     +E  Q.       H
|--------------------|----------------------|
|-12------7------7---|-(7)-7-------10-------|
|-12------7------7---|-(7)-7-------11-------|
|--------------------|----------------------|
|--------------------|----------------------|
|--------------------|----------------------|
|
|  W                   +H           H
|--------------------|----------------------|
|--------------------|----------------------|
|--9-----------------|-(9)--------/12-------|
|--------------------|----------------------|
|--------------------|----------------------|
|--------------------|----------------------|


   E  E  E  E  E E E E     E  E  E E  E E   E        E
|--------0-------0-----|---0-------0--------0-----------|
|-----0-----0------0---|------0---------0------------0--|
|----------------------|--------------------------------|
|--5-----------5-----5-|---------5----7-----------------|
|----------------------|--------------------------------|
|----------------------|--------------------------------|
|
|  Q.       Q.     Q      +E  Q.      H
|----------------------|--------------------------------|
|--8--------8------8---|--(8)-8------10-----------------|
|--9--------9------9---|--(9)-9------11-----------------|
|----------------------|--------------------------------|
|----------------------|--------------------------------|
|----------------------|--------------------------------|
|
|  E  E  H.               +H          Q    +E       +E
|----------------------|--------------------------------|
|----------------------|--------------------------------|
|-12s11-11-------------|-(11)--------11---(11)pb12-(11)-|
|----------------------|--------------------------------|
|----------------------|--------------------------------|
|----------------------|--------------------------------|


   E  E E E  E E E E    E  E  E E  E E E E
|-------0------0-----|--0-------0------0---|
|-----0---0------0---|-----0---------0---0-|
|--------------------|---------------------|
|--5---------5-----5-|--------4----7-------|
|--------------------|---------------------|
|--------------------|---------------------|
|
|  Q.     Q.     Q     +E  Q.      H
|--------------------|---------------------|
|-12------7------7---|-(7)-7------10-------|
|-12------7------7---|-(7)-7------11-------|
|--------------------|---------------------|
|--------------------|---------------------|
|--------------------|---------------------|
|
|  W                   +H.             E E
|--------------------|---------------------|
|--------------------|---------------------|
|--7-----------------|-(7)-------------7s4-|
|--------------------|---------------------|
|--------------------|---------------------|
|--------------------|---------------------|


  E  E E E  E E E E    E  E  E E  E E E E
|------0------0-----|--0-------0------0---|
|----0---0------0---|-----0---------0---0-|
|-------------------|---------------------|
|-2---------2-----2-|--------2----4-------|
|-------------------|---------------------|
|-------------------|---------------------|
|
| Q.     Q.     Q     +E  Q.      H
|-------------------|---------------------|
|-8------8------8---|-(8)-8------10-------|
|-9------9------9---|-(9)-9------11-------|
|-------------------|---------------------|
|-------------------|---------------------|
|-------------------|---------------------|
|
| >
| W                   +W
|-------------------|---------------------|
|-------------------|---------------------|
|-4-----------------|-(4)-----------------|
|-------------------|---------------------|
|-------------------|---------------------|
|-------------------|---------------------|


   E  E E E  E E E E    E  E  E E  E E E E
|-------0------0-----|--0-------0------0---|
|-----0---0------0---|-----0---------0---0-|
|--------------------|---------------------|
|--2---------2-----2-|--------2----4-------|
|--------------------|---------------------|
|--------------------|---------------------|
|
|  Q.     Q.     Q     +E  Q.      H
|--------------------|---------------------|
|-12------7------7---|-(7)-7------10-------|
|-12------7------7---|-(7)-7------11-------|
|--------------------|---------------------|
|--------------------|---------------------|
|--------------------|---------------------|
|
|  W                    W
|--------------------|---------------------|
|--------------------|---------------------|
|--------------------|---------------------|
|--------------------|---------------------|
|--------------------|---------------------|
|--------------------|---------------------|


  E  E E E  E E E E    E  E  E E  E E E E
|------0------0-----|--0-------0------0---|
|----0---0------0---|-----0---------0---0-|
|-------------------|---------------------|
|-5---------5-----5-|--------5----7-------|
|-------------------|---------------------|
|-------------------|---------------------|
|
| Q.     Q.     Q     +E  Q.      H
|-------------------|---------------------|
|-8------8------8---|-(8)-8------10-------|
|-9------9------9---|-(9)-9------11-------|
|-------------------|---------------------|
|-------------------|---------------------|
|-------------------|---------------------|


   E  E E E  E E E E    E  E  E E  E E E E
|-------0------0-----|--0-------0------0---|
|-----0---0------0---|-----0---------0---0-|
|--------------------|---------------------|
|--5---------5-----5-|--------4----7-------|
|--------------------|---------------------|
|--------------------|---------------------|
|
|  Q.     Q.     Q     +E  Q.      H
|--------------------|---------------------|
|-12------7------7---|-(7)-7------10-------|
|-12------7------7---|-(7)-7------11-------|
|--------------------|---------------------|
|--------------------|---------------------|
|--------------------|---------------------|


  E  E E E  E E E E    E  E  E E  E E E E
|------0------0-----|--0-------0------0---|
|----0---0------0---|-----0---------0---0-|
|-------------------|---------------------|
|-2---------2-----2-|--------2----4-------|
|-------------------|---------------------|
|-------------------|---------------------|
|
| Q.     Q.     Q     +E  Q.      H
|-------------------|---------------------|
|-8------8------8---|-(8)-8------10-------|
|-9------9------9---|-(9)-9------11-------|
|-------------------|---------------------|
|-------------------|---------------------|
|-------------------|---------------------|


   E  E E E  E E E E    E  E  E E  E E E E
|-------0------0-----|--0-------0------0---|
|-----0---0------0---|-----0---------0---0-|
|--------------------|---------------------|
|--2---------2-----2-|--------2----4-------|
|--------------------|---------------------|
|--------------------|---------------------|
|
|  Q.     Q.     Q     +E  Q.      H
|--------------------|---------------------|
|-12------7------7---|-(7)-7------10-------|
|-12------7------7---|-(7)-7------11-------|
|--------------------|---------------------|
|--------------------|---------------------|
|--------------------|---------------------|


  E  E E E  E E E E    E  E  E E  E E E E
|------0------0-----|--0-------0------0---|
|----0---0------0---|-----0---------0---0-|
|-------------------|---------------------|
|-5---------5-----5-|--------5----7-------|
|-------------------|---------------------|
|-------------------|---------------------|
|
| Q.     Q.     Q     +E  Q.      H
|-------------------|---------------------|
|-8------8------8---|-(8)-8------10-------|
|-9------9------9---|-(9)-9------11-------|
|-------------------|---------------------|
|-------------------|---------------------|
|-------------------|---------------------|
|
| Gtrs I, II
| W                    W
|-------------------|---------------------|
|-------------------|---------------------|
|-------------------|---------------------|
|-------------------|---------------------|
|-------------------|---------------------|
|-------------------|---------------------|


   E  E E E  E E E E    E  E  E E  E E E E
|-------0------0-----|--0-------0------0---||
|-----0---0------0---|-----0---------0---0-||
|--------------------|---------------------||
|--5---------5-----5-|--------4----7-------||
|--------------------|---------------------||
|--------------------|---------------------||
|
|  Q.     Q.     Q     +E  Q.      H
|--------------------|---------------------||
|-12------7------7---|-(7)-7------10-------||
|-12------7------7---|-(7)-7------11-------||
|--------------------|---------------------||
|--------------------|---------------------||
|--------------------|---------------------||
|
|  W                    H          Q   Q
|--------------------|---------------------||
|--------------------|---------------------||
|--------------------|---------------------||
|--------------------|-------------0---0---||
|--------------------|-------------0---0---||
|--------------------|-------------0---0---||


    Gtr II
     T        T        T        T          T        T        T        T
     S S S S  S S S S  S S S S  S S S S    S S S S  S S S S  S S S S  S S S S
||--------------------------------------|--------------------------------------|
||o-12p0h5h7-12p0h5h7-12p0h5h7-12p0h5h7-|-12p0h5h7-12p0h5h7-12p0h5h7-12p0h5h7--|
||--------------------------------------|--------------------------------------|
||--------------------------------------|--------------------------------------|
||o-------------------------------------|--------------------------------------|
||--------------------------------------|--------------------------------------|
|
|   Gtr I
|    E   E    E   E    E   E    E   E      E   E    E   E    E   E    E   E
||--------------------------------------|--------------------------------------|
||o-------------------------------------|--------------------------------------|
||--------------------------------------|--------------------------------------|
||---2---2----2---2----2---2----2---2---|--2---2----2---2----0---0----0---0----|
||o--2---2----2---2----2---2----2---2---|--2---2----2---2----0---0----0---0----|
||---2---2----2---2----2---2----2---2---|--2---2----2---2----0---0----0---0----|


   T        T        T        T          T        T        T        T
   S S S S  S S S S  S S S S  S S S S    S S S S  S S S S  S S S S  S S S S
|-------------------------------------|-------------------------------------|
|-12p0h5h7-12p0h5h7-12p0h5h7-12p0h5h7-|-12p0h5h7-12p0h5h7-12p0h5h7-12p0h5h7-|
|-------------------------------------|-------------------------------------|
|-------------------------------------|-------------------------------------|
|-------------------------------------|-------------------------------------|
|-------------------------------------|-------------------------------------|
|
|  E   E    E   E    E   E    E   E      E   E    E   E    E   E    E   E
|-------------------------------------|-------------------------------------|
|-------------------------------------|-------------------------------------|
|-------------------------------------|--------------------7---7----7---7---|
|--2---2----2---2----2---2----2---2---|--2---2----2---2----7---7----7---7---|
|--2---2----2---2----2---2----2---2---|--2---2----2---2----5---5----5---5---|
|--2---2----2---2----2---2----2---2---|--2---2----2---2---------------------|


   T        T        T        T          T        T        T        T
   S S S S  S S S S  S S S S  S S S S    S S S S  S S S S  S S S S  S S S S
|-12p0h5h7-12p0h5h7-12p0h5h7-12p0h5h7-|-12p0h5h7-12p0h5h7-12p0h5h7-12p0h5h7-|
|-------------------------------------|-------------------------------------|
|-------------------------------------|-------------------------------------|
|-------------------------------------|-------------------------------------|
|-------------------------------------|-------------------------------------|
|-------------------------------------|-------------------------------------|
|
|  E   E    E   E    E   E    E   E      E   E    E   E    E   E    E   E
|-------------------------------------|-------------------------------------|
|-------------------------------------|-------------------------------------|
|--2---2----2---2----2---2----2---2---|--2---2----2---2----2---2----2---2---|
|--2---2----2---2----2---2----2---2---|--2---2----2---2----2---2----2---2---|
|--0---0----0---0----0---0----0---0---|--0---0----0---0----0---0----0---0---|
|-------------------------------------|-------------------------------------|


   T        T        T        T          T        T        T        T
   S S S S  S S S S  S S S S  S S S S    S S S S  S S S S  S S S S  S S S S
|-12p0h5h7-12p0h5h7-12p0h5h7-12p0h5h7-|--------------------------------------||
|-------------------------------------|-------------------------------------o||
|-------------------------------------|-12p0h5h7-12p0h5h7-12p0h5h7-12p0h7h9--||
|-------------------------------------|--------------------------------------||
|-------------------------------------|-------------------------------------o||
|-------------------------------------|--------------------------------------||
|
|  E   E    E   E    E   E    E   E      E   E    E   E    E   E    E   E
|-------------------------------------|--------------------------------------||
|-------------------------------------|-------------------------------------o||
|--5---5----5---5----5---5----5---5---|--------------------------------------||
|--5---5----5---5----5---5----5---5---|--1---1----1---1----1---1----1---1----||
|--3---3----3---3----3---3----3---3---|--1---1----1---1----1---1----1---1---o||
|-------------------------------------|--1---1----1---1----1---1----1---1----||


   H..         E   +H     H      W             +H     H
|----------------|-------------|-------------|-------------|
|----------------|-------------|-------------|-------------|
|-10-----------9-|-(9)----8----|-7-----------|-(7)----6----|
|----------------|-------------|-------------|-------------|
|--8-----------7-|-(7)----6----|-5-----------|-(5)----4----|
|----------------|-------------|-------------|-------------|
|
|            PM                          PM
|  H      Q  E E   +H     H      H    Q  E E   +H     H
|--------------0-|-(0)---------|-----------0-|-(0)---------|
|--------------3-|-(3)---------|-----------3-|-(3)---------|
|--------------2-|-(2)---------|-----------2-|-(2)---------|
|--0------0----0-|-(0)----1----|-0----0----0-|-(0)----1----|
|--0------0--0-0-|-(0)----1----|-0----0--0-0-|-(0)----1----|
|--0------0--0-0-|-(0)----1----|-0----0--0-0-|-(0)----1----|


   H..         E   +H     H      W             +H     H
|----------------|-------------|-------------|-------------|
|----------------|-------------|-------------|-------------|
|-10-----------9-|-(9)----8----|-7-----------|-(7)----8----|
|----------------|-------------|-------------|-------------|
|--8-----------7-|-(7)----6----|-5-----------|-(5)----6----|
|----------------|-------------|-------------|-------------|
|
|            PM                          PM
|  H      Q  E E   +H     H      H    Q  E E   +H     H
|--------------0-|-(0)---------|-----------0-|-(0)---------|
|--------------3-|-(3)---------|-----------3-|-(3)---------|
|--------------2-|-(2)---------|-----------2-|-(2)---------|
|--0------0----0-|-(0)----1----|-0----0----0-|-(0)----1----|
|--0------0--0-0-|-(0)----1----|-0----0--0-0-|-(0)----1----|
|--0------0--0-0-|-(0)----1----|-0----0--0-0-|-(0)----1----|


    Gtrs I, II
    PM----------|
    E Q  E Q  E E   E  E   Q   E  E   Q
||----------------|-----------------------|
||o---------------|-----------------------|
||----------------|--------0----------0---|
||----------------|----7--(7)-----0--(0)--|
||o-0-0--0-0--0-0-|-5-(5)------6-(6)------|
||--0-0--0-0--0-0-|-----------------------|


  PM----------|                     ~~~
  E Q  E Q  E E   E  E   Q   E  E   Q
|---------------|------------------------||
|---------------|-----------------------o||
|---------------|--------0---------------||
|---------------|----7--(7)-----0--------||
|-0-0--0-0--0-0-|-5-(5)------6-(6)-[6]--o||
|-0-0--0-0--0-0-|------------------------||


  Gtr IV
  E E +H     E E   +H     H      E E +H     E E   +H     H
|-3------------3-|-(3)---------|-1------------3-|-(3)---------|
|------------3---|--------3----|------------3---|--------3----|
|---3-(3)--------|-------------|---2-(2)--------|-------------|
|----------------|-------------|----------------|-------------|
|----------------|-------------|----------------|-------------|
|----------------|-------------|----------------|-------------|
|
| Gtr III
| E E +H     E E   +H     H      E E +H     E E   +H     H
|-3------------3-|-(3)---------|-1------------3-|-(3)---------|
|------------3---|--------3----|------------3---|--------3----|
|---3-(3)--------|-------------|---2-(2)--------|-------------|
|----------------|-------------|----------------|-------------|
|----------------|-------------|----------------|-------------|
|----------------|-------------|----------------|-------------|


  E E +H     E E   +H       H       E E +H     E E    +H     H
|-3------------3-|-(3)-----------|--1------------3-|--(3)---------|
|------------3---|----------3----|-------------3---|---------3----|
|---3-(3)--------|---------------|----2-(2)--------|--------------|
|----------------|---------------|-----------------|--------------|
|----------------|---------------|-----------------|--------------|
|----------------|---------------|-----------------|--------------|
|
| E E +H     E E   +H       H       W                 +H     H
|-3------------3-|-(3)-----------|-----------------|--------------|
|------------3---|--------/10----|-----------------|--------------|
|---3-(3)--------|---------/7----|-10--------------|-(10)----7----|
|----------------|---------------|-----------------|--------------|
|----------------|---------------|-----------------|--------------|
|----------------|---------------|-----------------|--------------|


   E E +H     E E   +H     H       E E +H     E E   +H     H
|--3------------3-|-(3)---------|--1------------3-|-(3)---------|
|-------------3---|--------3----|-------------3---|--------3----|
|----3-(3)--------|-------------|----2-(2)--------|-------------|
|-----------------|-------------|-----------------|-------------|
|-----------------|-------------|-----------------|-------------|
|-----------------|-------------|-----------------|-------------|
|
|  E E +H.          +W             E E +H.          +H     H
|-----------------|-------------|-----------------|-------------|
|-13--------------|-------------|-11--------------|-------------|
|-----------------|-------------|-----------------|--------7----|
|----8-(8)--------|-(8)---------|----7-(7)--------|-(7)---------|
|-----------------|-------------|-----------------|-------------|
|-----------------|-------------|-----------------|-------------|


   E E +H     E E   +H       H       E E +H     E E   +H     H
|--3------------3-|-(3)-----------|--1------------3-|-(3)-------------|
|-------------3---|----------3----|-------------3---|--------3--------|
|----3-(3)--------|---------------|----2-(2)--------|-----------------|
|-----------------|---------------|-----------------|-----------------|
|-----------------|---------------|-----------------|-----------------|
|-----------------|---------------|-----------------|-----------------|
|
|  E E +H.          +H       H       E E +H.          +H     H
|-----------------|---------------|-----------------|-----------------|
|-13--------------|--------/15----|-11--------------|-----------------|
|-----------------|---------------|-----------------|--------7--------|
|----8-(8)--------|-(8)-----------|----7-(7)--------|-(7)-------------|
|-----------------|---------------|-----------------|-----------------|
|-----------------|---------------|-----------------|-----------------|
|
| Gtrs I, II
|  W                 W               W                 H.        Q
|-----------------|---------------|-----------------|-----------------|
|-----------------|---------------|-----------------|-----------------|
|-----------------|---------------|-----------------|-----------------|
|-----------------|---------------|-----------------|-----------------|
|-----------------|---------------|-----------------|-----------/8\---|
|-----------------|---------------|-----------------|-----------/8\---|


    Gtrs I, II
    PM----------|
    E Q  E Q  E E   E  E   Q   E  E   Q
||----------------|-----------------------|
||o---------------|-----------------------|
||----------------|--------0----------0---|
||----------------|----7--(7)-----0--(0)--|
||o-0-0--0-0--0-0-|-5-(5)------6-(6)------|
||--0-0--0-0--0-0-|-----------------------|


  PM----------|                     ~~~
  E Q  E Q  E E   E  E   Q   E  E   Q
|---------------|------------------------||
|---------------|-----------------------o||
|---------------|--------0---------------||
|---------------|----7--(7)-----0--------||
|-0-0--0-0--0-0-|-5-(5)------6-(6)-[6]--o||
|-0-0--0-0--0-0-|------------------------||


  Gtr II
  PM-------------------------------------------|
  E Q  E Q  E E   +W           E Q  E Q  E E   +W
|---------------|------------|---------------|-----------------------|
|---------------|------------|---------------|-----------------------|
|---------------|------------|---------------|-----------------------|
|---------------|------------|---------------|-----------------------|
|-0-0--0-0--0-0-|-(0)--------|-0-0--0-0--0-0-|-(0)-------------------|
|-0-0--0-0--0-0-|-(0)--------|-0-0--0-0--0-0-|-(0)-------------------|
|
| Gtr I
| PM----------------------------------|
| E Q  E Q  E E   +W           E Q  E Q  E E    E  E  E E  E E  E E
|---------------|------------|---------------|-----------------------|
|---------------|------------|---------------|-----------------------|
|---------------|------------|---------------|-----------------------|
|---------------|------------|-----------7-8-|-----7----6----6----6--|
|-0-0--0-0--0-0-|-(0)--------|-0-0--0-0------|-11----10---10---10----|
|-0-0--0-0--0-0-|-(0)--------|-0-0--0-0------|-----------------------|


  PM---------------------------------------|
  E Q  E Q  E E   +W           E Q  E Q  E E   W
|---------------|------------|---------------|------||
|---------------|------------|---------------|------||
|---------------|------------|---------------|------||
|---------------|------------|---------------|------||
|-0-0--0-0--0-0-|-(0)--------|-0-0--0-0--0-0-|------||
|-0-0--0-0--0-0-|-(0)--------|-0-0--0-0--0-0-|------||
|
| PM---------------------------------------|
| E Q  E Q  E E   +W           E Q  E Q  E E   W
|---------------|------------|---------------|------||
|---------------|------------|---------------|------||
|---------------|------------|---------------|------||
|---------------|------------|---------------|------||
|-0-0--0-0--0-0-|-(0)--------|-0-0--0-0--0-0-|------||
|-0-0--0-0--0-0-|-(0)--------|-0-0--0-0--0-0-|------||


    E E +H.        +H     H      W          +H     H
||---------------|-------------|----------|-------------|
||o--------------|-------------|----------|-------------|
||--5-7-(7)------|-(7)----7----|-7--------|-(7)----7----|
||---------------|-------------|----------|-------------|
||o-3-5-(5)------|-(5)---------|-5--------|-(5)----5----|
||---------------|-------------|----------|-------------|
|
|   E E +H.        +W            W          +W
||---------------|-------------|----------|-------------|
||o--------------|-------------|----------|-------------|
||---------------|-------------|----------|-------------|
||--3-5-(5)------|-(5)---------|-4--------|-(4)---------|
||o-3-5-(5)------|-(5)---------|-5--------|-(5)---------|
||--3-5-(5)------|-(5)---------|-4--------|-(4)---------|


  W          +H     H      E E +H.        W
|----------|-------------|--------------|-------||
|----------|-------------|--------------|------o||
|-8--------|-(8)----8----|-8-7-(7)------|-------||
|----------|-------------|--------------|-3-----||
|-6--------|-(6)----6----|-6-5-(5)------|-3----o||
|----------|-------------|--------------|-3-----||
|
| W          +W            W              W
|----------|-------------|--------------|-------||
|----------|-------------|--------------|------o||
|----------|-------------|--------------|-------||
|-1--------|-(1)---------|-0------------|-3-----||
|-1--------|-(1)---------|-0------------|-3----o||
|-1--------|-(1)---------|-0------------|-3-----||


    E E +H.        +H     H      W              +H      H
||---------------|-------------|--------------|---------------|
||o--------------|-------------|--------------|---------------|
||--5-7-(7)------|-(7)----7----|-7------------|-(7)-----7-----|
||---------------|-------------|--------------|---------------|
||o-3-5-(5)------|-(5)---------|-5------------|-(5)-----5-----|
||---------------|-------------|--------------|---------------|
|
|   E E +H.        +H     H      H.       Q      H      H
||---------------|-------------|--------------|---------------|
||o--------------|-------------|--------------|---------------|
||---------------|-------------|--------------|---------------|
||--3-5-(5)------|-(5)---------|-4------------|--4------------|
||o-3-5-(5)------|-(5)----5----|-5--------5---|---------5-----|
||--3-5-(5)------|-(5)---------|-4-------(4)--|-(4)----(4)----|


  W          +H     H      E E +H.        W
|----------|-------------|--------------|-------||
|----------|-------------|--------------|------o||
|-8--------|-(8)----8----|-8-7-(7)------|-5-----||
|----------|-------------|--------------|-------||
|-6--------|-(6)----6----|-6-5-(5)------|-3----o||
|----------|-------------|--------------|-------||
|
| W          +W            W              W
|----------|-------------|--------------|-------||
|----------|-------------|--------------|------o||
|----------|-------------|--------------|-------||
|-1--------|-(1)---------|-0------------|-3-----||
|-1--------|-(1)---------|-0------------|-3----o||
|-1--------|-(1)---------|-0------------|-3-----||


  Gtrs I, II
    >
  E E +H.        +W           +W           +W           Wx6
|--------------|------------|------------|------------|--------*|
|--------------|------------|------------|------------|--------*|
|--------------|------------|------------|------------|--------*|
|-3-5-(5)------|-(5)--------|-(5)--------|-(5)--------|--------*|
|-3-5-(5)------|-(5)--------|-(5)--------|-(5)--------|--------*|
|-3-5-(5)------|-(5)--------|-(5)--------|-(5)--------|--------*|



Duration Legend
---------------
W - whole; H - half; Q - quarter; E - 8th; S - 16th; T - 32nd; X - 64th; a - acciaccatura
+ - note tied to previous; . - note dotted; .. - note double dotted
Uncapitalized letters represent notes that are staccato (1/2 duration)
Irregular groupings are notated above the duration line
Duration letters will always appear directly above the note/fret number it represents the
duration for.  Duration letters with no fret number below them represent rests.  Multi-
bar rests are notated in the form Wxn, where n is the number of bars to rest for.  Low
melody durations appear below the staff

Tablature Legend
----------------
 h   - hammer-on
 p   - pull-off
 b   - bend
 pb  - pre-bend
 r   - bend release (if no number after the r, then release immediately)
 /\  - slide into or out of (from/to "nowhere")
 s   - legato slide
 S   - shift slide
 - natural harmonic
[n]  - artificial harmonic
n(n) - tapped harmonic
 ~   - vibrato
 tr  - trill
 T   - tap
 TP  - trem. picking
 PM  - palm muting
\n/  - tremolo bar dip; n = amount to dip
 \n  - tremolo bar down
 n/  - tremolo bar up
/n\  - tremolo bar inverted dip
 =   - hold bend; also acts as connecting device for hammers/pulls
 <> - volume swell (louder/softer)
 x   - on rhythm slash represents muted slash
 o   - on rhythm slash represents single note slash

Misc Legend
-----------
 |  - bar
||  - double bar
||o - repeat start
o|| - repeat end
*|  - double bar (ending)
 :  - bar (freetime)
 $  - Segno
 &  - Coda
Tempo markers -  = BPM(8/16=s8/s16), where s8 = swing 8ths, s16 = swing 16ths


** Generated using Power Tab Editor by Brad Larsen: The Official Power Tab Web Site

            
            
Suggest correction
Creating personal tab
Creating personal tab
You can edit any tab online and save it as your Personal.

You can edit, replace or remove any tab part or add personal notes – all changes will be seen only by you.

Personal tabs can be accessed anytime from any device, even offline.
Learn more »
Give kudos to tab author, rate the tab!
1 2 3 4 5
comments
print report bad tab
guest
You may want to rate the tab now too:
select rating
Wanna post a correction for this tab? Suggest correction