Oops, an error
Loading. Please wait.

Hold This Woe tab

version 1
version 1

Whole song

Interactive

1,403 views 1 this week
1 commentread comment
1 2 3 4 5
x 3
add to favorites
×
Save as Personal and add changes to this tab that will be seen only by you. Learn more ›
×
You can save this tab as Personal to edit and correct it or add notes. All changes will be seen only by you. Learn more »
launch autoscroll
font size
0
reset
how to read this tab
guitar tuner
edit
Autoscroll
slow
fast
+/-
esc
set tempo
stop
#----------------------------------PLEASE NOTE---------------------------------#
#This file is the author's own work and represents their interpretation of the #
#song. You may only use this file for private study, scholarship, or research. #
#------------------------------------------------------------------------------#

HOLD THIS WOE
As recorded by Swallow The Sun
(From the 2003 Album THE MORNING NEVER CAME)

Transcribed by Danny Heater
Transfered to tab by Jerry Brown jr.
Blackritual0@yahoo.com
	

Words and Music by Juha Ravio

D5
0 0 0 x x x
	
G5
5 5 5 x x x
	
F5
3 3 3 x x x
	
C5
10 10 10 x x x
Bb5
8 8 8 x x x
	
A5
7 7 7 x x x

Gtr I (C G C F A D) - 'Untitled'
Gtr II (C G C F A D) - 'Untitled'
Gtr III (C G C F A D) - 'Untitled'
Gtr IV (C G C F A D) - 'Untitled'
Gtr V (C G C F A D) - 'Untitled'

 Intro
  Q=120
  D5
 4/4
  Gtr II
   E  E    E  E  E  E  E  E     E   E   E E E E E E
|---------------------------|-----------------------|
|---------------------------|-----------------------|
|----10---10-10-10-10-10-10-|-------9---9-9-9-9-9-9-|
|---------------------------|-----------------------|
|--0--8----8--8--8--8--8--8-|---0---7---7-7-7-7-7-7-|
|--0------------------------|---0-------------------|
|
| Gtr I
|  E  E    E  E  E  E  E  E     E   E   E E E E E E
|---------------------------|-----------------------|
|---------------------------|-----------------------|
|---------------------------|-----------------------|
|--0--0----0--0--0--0--0--0-|---0---0---0-0-0-0-0-0-|
|--0--0----0--0--0--0--0--0-|---0---0---0-0-0-0-0-0-|
|--0--0----0--0--0--0--0--0-|---0---0---0-0-0-0-0-0-|
|
| Gtr III
|  E  H..                      +E   H..
|----13---------------------|-(13)-12---------------|
|---------------------------|-----------------------|
|----10---------------------|-(10)--9---------------|
|-12------------------------|--12-------------------|
|-12------------------------|--12-------------------|
|-12------------------------|--12-------------------|
   W                            W


       G5                 D5   F5
    E   E   E E E E E E     E  E E E E  E  E E
|-----------------------|----------------------|
|-----------------------|----------------------|
|-------7---7-7-7-7-7-7-|------5-5-5-5s=7--7-7-|
|-----------------------|----------------------|
|---0---5---5-5-5-5-5-5-|---0--3-3-3-3s=5--5-5-|
|---0-------------------|---0------------------|
|
|   E   E   E E E E E E     E  E E E E  E  E E
|-----------------------|----------------------|
|-----------------------|----------------------|
|-----------------------|----------------------|
|---0---5---5-5-5-5-5-5-|---0--3-3-3-3--3--3-3-|
|---0---5---5-5-5-5-5-5-|---0--3-3-3-3--3--3-3-|
|---0---5---5-5-5-5-5-5-|---0--3-3-3-3--3--3-3-|
|
|  +E   H..                +E  H        Q.
|-(12)-10---------------|-(10)-8-------10------|
|-----------------------|----------------------|
|--(9)--7---------------|--(7)-5--------7------|
|-(12)--5---------------|--(5)-3-------(3)-----|
|-(12)--5---------------|--(5)-3-------(3)-----|
|-(12)--5---------------|--(5)-3-------(3)-----|
   +E   H..                +E  H       +Q.


  D5
    E   E    E  E  E  E  E  E     E   E   E E E E E E
|-----------------------------|-----------------------|
|-----------------------------|-----------------------|
|------10---10-10-10-10-10-10-|-------9---9-9-9-9-9-9-|
|-----------------------------|-----------------------|
|---0---8----8--8--8--8--8--8-|---0---7---7-7-7-7-7-7-|
|---0-------------------------|---0-------------------|
|
|   E   E    E  E  E  E  E  E     E   E   E E E E E E
|-----------------------------|-----------------------|
|-----------------------------|-----------------------|
|-----------------------------|-----------------------|
|---0---0----0--0--0--0--0--0-|---0---0---0-0-0-0-0-0-|
|---0---0----0--0--0--0--0--0-|---0---0---0-0-0-0-0-0-|
|---0---0----0--0--0--0--0--0-|---0---0---0-0-0-0-0-0-|
|
|  +E   H..                      +E   H..
|-(10)-13---------------------|-(13)-12---------------|
|-----------------------------|-----------------------|
|--(7)-10---------------------|-(10)--9---------------|
|--12-------------------------|-(12)------------------|
|--12-------------------------|-(12)------------------|
|--12-------------------------|-(12)------------------|
    W                            +W


       C5                       D5   F5
    E   E    E  E  E  E  E  E     E   E    E  E  E  E  E  E
|-----------------------------|-----------------------------|
|-----------------------------|-----------------------------|
|------14---14-14-14-14-14-14-|------12---12-12-12-12-12-12-|
|-----------------------------|-----------------------------|
|---0--12---12-12-12-12-12-12-|---0--10---10-10-10-10-10-10-|
|---0-------------------------|---0-------------------------|
|
|   E   E    E  E  E  E  E  E     E   E    E  E  E  E  E  E
|-----------------------------|-----------------------------|
|-----------------------------|-----------------------------|
|-----------------------------|-----------------------------|
|---0--10---10-10-10-10-10-10-|---0---3----3--3--3--3--3--3-|
|---0--10---10-10-10-10-10-10-|---0---3----3--3--3--3--3--3-|
|---0--10---10-10-10-10-10-10-|---0---3----3--3--3--3--3--3-|
|
|  +E   H..                      +E   H..
|-(12)-17---------------------|-(17)-15---------------------|
|-----------------------------|-----------------------------|
|--(9)-14---------------------|-(14)-12---------------------|
|-(12)-10---------------------|-(10)--3---------------------|
|-(12)-10---------------------|-(10)--3---------------------|
|-(12)-10---------------------|-(10)--3---------------------|
   +E   H..                      +E   H..


  D5
  Gtr I
    E   E    E  E  E  E  E  E     E   E    E  E  E  E  E  E
    |   |    |  |  |  |  |  |     |   |    |  |  |  |  |  |
    /   /    /  /  /  /  /  /     /   /    /  /  /  /  /  /

    E   E    E  E  E  E  E  E     E   E    E  E  E  E  E  E
|-----------------------------|-----------------------------|
|-----------------------------|-----------------------------|
|------10---10-10-10-10-10-10-|-------9----9--9--9--9--9--9-|
|-----------------------------|-----------------------------|
|---0---8----8--8--8--8--8--8-|---0---7----7--7--7--7--7--7-|
|---0-------------------------|---0-------------------------|
|
| Gtr IV
|   E   E    E  E  E  E  E  E     E   E    E  E  E  E  E  E
|-----------------------------|-----------------------------|
|-----------------------------|-----------------------------|
|------14---14-14-14-14-14-14-|------12---12-12-12-12-12-12-|
|-----------------------------|-----------------------------|
|---0--12---12-12-12-12-12-12-|---0--10---10-10-10-10-10-10-|
|---0-------------------------|---0-------------------------|
|
|  +E   H..                      +E   H..
|-(15)-13---------------------|-(13)-12---------------------|
|-----------------------------|-----------------------------|
|-(12)-10---------------------|-(10)--9---------------------|
|--12-------------------------|--12-------------------------|
|--12-------------------------|--12-------------------------|
|--12-------------------------|--12-------------------------|
    W                             W


  G5                      F5
    E   E   E E E E E E     E  E E E E  E  E E
    |   |   | | | | | |     |  | | | |  |  | |
    /   /   / / / / / /     /  / / / /  /  / /

    E   E   E E E E E E     E  E E E E  E  E E
|-----------------------|----------------------|
|-----------------------|----------------------|
|-------7---7-7-7-7-7-7-|------5-5-5-5s=7--7-7-|
|-----------------------|----------------------|
|---0---5---5-5-5-5-5-5-|---0--3-3-3-3s=5--5-5-|
|---0-------------------|---0------------------|
|
|   E   E   E E E E E E     E  E E E E  E  E E
|-----------------------|----------------------|
|-----------------------|----------------------|
|-------9---9-9-9-9-9-9-|------5-5-5-5--5--5-5-|
|-----------------------|----------------------|
|---0---7---7-7-7-7-7-7-|---0--3-3-3-3--3--3-3-|
|---0-------------------|---0------------------|
|
|  +E   H..                +E  H        Q.
|-(12)-10---------------|-(10)-8-------10------|
|-----------------------|----------------------|
|--(9)--7---------------|--(7)-5--------7------|
|-(12)--5---------------|--(5)-3-------(3)-----|
|-(12)--5---------------|--(5)-3-------(3)-----|
|-(12)--5---------------|--(5)-3-------(3)-----|
   +E   H..                +E  H       +Q.


  D5
    E   E    E  E  E  E  E  E     E   E    E  E  E  E  E  E
    |   |    |  |  |  |  |  |     |   |    |  |  |  |  |  |
    /   /    /  /  /  /  /  /     /   /    /  /  /  /  /  /

    E   E    E  E  E  E  E  E     E   E    E  E  E  E  E  E
|-----------------------------|-----------------------------|
|-----------------------------|-----------------------------|
|------10---10-10-10-10-10-10-|-------9----9--9--9--9--9--9-|
|-----------------------------|-----------------------------|
|---0---8----8--8--8--8--8--8-|---0---7----7--7--7--7--7--7-|
|---0-------------------------|---0-------------------------|
|
|   E   E    E  E  E  E  E  E     E   E    E  E  E  E  E  E
|-----------------------------|-----------------------------|
|-----------------------------|-----------------------------|
|------14---14-14-14-14-14-14-|------12---12-12-12-12-12-12-|
|-----------------------------|-----------------------------|
|---0--12---12-12-12-12-12-12-|---0--10---10-10-10-10-10-10-|
|---0-------------------------|---0-------------------------|
|
|  +E   H..                      +E   H..
|-(10)-13---------------------|-(13)-12---------------------|
|-----------------------------|-----------------------------|
|--(7)-10---------------------|-(10)--9---------------------|
|--12-------------------------|-(12)------------------------|
|--12-------------------------|-(12)------------------------|
|--12-------------------------|-(12)------------------------|
    W                            +W


                                                  To Coda
  C5                            F5
    E   E    E  E  E  E  E  E     E   E    E  E  E  E  E  E
    |   |    |  |  |  |  |  |     |   |    |  |  |  |  |  |
    /   /    /  /  /  /  /  /     /   /    /  /  /  /  /  /

    E   E    E  E  E  E  E  E     E   E    E  E  E  E  E  E
|-----------------------------|-----------------------------||
|-----------------------------|-----------------------------||
|------14---14-14-14-14-14-14-|------12---12-12-12-12-12-12-||
|-----------------------------|-----------------------------||
|---0--12---12-12-12-12-12-12-|---0--10---10-10-10-10-10-10-||
|---0-------------------------|---0-------------------------||
|
|   E   E    E  E  E  E  E  E     E   E    E  E  E  E  E  E
|-----------------------------|-----------------------------||
|-----------------------------|-----------------------------||
|-------9----9--9--9--9--9--9-|-------5----5--5--5--5--5--5-||
|-----------------------------|-----------------------------||
|---0---7----7--7--7--7--7--7-|---0---3----3--3--3--3--3--3-||
|---0-------------------------|---0-------------------------||
|
|  +E   H..                      +E   H..
|-(12)-17---------------------|-(17)-15---------------------||
|-----------------------------|-----------------------------||
|--(9)-14---------------------|-(14)-12---------------------||
|-(12)-10---------------------|-(10)--3---------------------||
|-(12)-10---------------------|-(10)--3---------------------||
|-(12)-10---------------------|-(10)--3---------------------||
   +E   H..                      +E   H..


 ridge
  D5
  Gtr V
   E  E  E  E  E  E  E  E    E   E  E  E  E  E  E  E
|-------------20----------|--------------15----------|
|----18-17-18----18-17-18-|-----18-17-18----18-17-18-|
|-19----------------------|-19-----------------------|
|-------------------------|--------------------------|
|-------------------------|--------------------------|
|-------------------------|--------------------------|
|
| Gtrs I, II
|  W                        +W
|-------------------------|--------------------------|
|-------------------------|--------------------------|
|-------------------------|--------------------------|
|--0----------------------|-(0)----------------------|
|--0----------------------|-(0)----------------------|
|--0----------------------|-(0)----------------------|


   E   E  E  E  E  E  E  E    E   E  E  E  E  E  E  E
|--------------20----------|--------------15----------|
|-----18-17-18----18-17-18-|-----18-17-18----18-17-18-|
|-19-----------------------|-19-----------------------|
|--------------------------|--------------------------|
|--------------------------|--------------------------|
|--------------------------|--------------------------|
|
|  >
| +W                         +W
|--------------------------|--------------------------|
|--------------------------|--------------------------|
|--------------------------|--------------------------|
|-(0)----------------------|-(0)----------------------|
|-(0)----------------------|-(0)----------------------|
|-(0)----------------------|-(0)----------------------|


   E   E  E  E  E  E  E  E    E   E  E  E  E  E  E  E
|--------------20----------|--------------15----------|
|-----18-17-18----18-17-18-|-----18-17-18----18-17-18-|
|-19-----------------------|-19-----------------------|
|--------------------------|--------------------------|
|--------------------------|--------------------------|
|--------------------------|--------------------------|
|
| +W                         +W
|--------------------------|--------------------------|
|--------------------------|--------------------------|
|--------------------------|--------------------------|
|-(0)----------------------|-(0)----------------------|
|-(0)----------------------|-(0)----------------------|
|-(0)----------------------|-(0)----------------------|


   E   E  E  E  E  E  E  E    E   E  E  E  E  E  E  E
|--------------20----------|--------------15----------|
|-----18-17-18----18-17-18-|-----18-17-18----18-17-18-|
|-19-----------------------|-19-----------------------|
|--------------------------|--------------------------|
|--------------------------|--------------------------|
|--------------------------|--------------------------|
|
| +W                         +W
|--------------------------|--------------------------|
|--------------------------|--------------------------|
|--------------------------|--------------------------|
|-(0)----------------------|-(0)----------------------|
|-(0)----------------------|-(0)----------------------|
|-(0)----------------------|-(0)----------------------|


  N.C.
    E  E  E  E  E  E  E  E     E   E  E  E   E  E  E  E
|--------------20----------|----------------15----------|
|-----18-17-18----18-17-18-|------18-17-18-----18-17-18-|
|--19----------------------|--19------------------------|
|--------------------------|----------------------------|
|--------------------------|----------------------------|
|--------------------------|----------------------------|
|
| Gtr II
|   W                         +H             H
|--------------------------|----------------------------|
|-/10----------------------|-(10)----------/13----------|
|--------------------------|----------------------------|
|--------------------------|----------------------------|
|--------------------------|----------------------------|
|--------------------------|----------------------------|
|
| Gtr I
|   W                         +H             H
|--------------------------|----------------------------|
|--------------------------|----------------------------|
|-/10----------------------|-(10)----------/14----------|
|--------------------------|----------------------------|
|--------------------------|----------------------------|
|--------------------------|----------------------------|


   E  E  E  E  E  E  E  E     E   E  E  E  E  E  E  E
|-------------20----------|---------------15----------|
|----18-17-18----18-17-18-|------18-17-18----18-17-18-|
|-19----------------------|--19-----------------------|
|-------------------------|---------------------------|
|-------------------------|---------------------------|
|-------------------------|---------------------------|
|
|  W                         +H            H
|-------------------------|---------------------------|
|-------------------------|---------------------------|
|--9----------------------|--(9)----------12----------|
|-------------------------|---------------------------|
|-------------------------|---------------------------|
|-------------------------|---------------------------|
|
|  W                         +H            H
|-------------------------|---------------------------|
|-------------------------|---------------------------|
|-15----------------------|-(15)----------12----------|
|-------------------------|---------------------------|
|-------------------------|---------------------------|
|-------------------------|---------------------------|


    E  E  E  E  E  E  E  E     E   E  E  E  E  E  E  E
|--------------20----------|---------------15----------|
|-----18-17-18----18-17-18-|------18-17-18----18-17-18-|
|--19----------------------|--19-----------------------|
|--------------------------|---------------------------|
|--------------------------|---------------------------|
|--------------------------|---------------------------|
|
|   W                         +H            H
|--------------------------|---------------------------|
|--------------------------|---------------------------|
|--10----------------------|-(10)-----------5----------|
|--------------------------|---------------------------|
|--------------------------|---------------------------|
|--------------------------|---------------------------|
|
|   W                         +H            H
|--------------------------|---------------------------|
|--------------------------|---------------------------|
|-/14----------------------|-(14)-----------9----------|
|--------------------------|---------------------------|
|--------------------------|---------------------------|
|--------------------------|---------------------------|


   E  E  E  E  E  E  E  E    E  E  E   E  E  E  E  E
|-------------20----------|--------------15----------|
|----18-17-18----18-17-18-|----18-17--18----18-17-18-|
|-19----------------------|-19-----------------------|
|-------------------------|--------------------------|
|-------------------------|--------------------------|
|-------------------------|--------------------------|
|
|  W                         E  E  H.
|-------------------------|--------------------------|
|-------------------------|--------------------------|
|--7----------------------|--7s=9--9-----------------|
|-------------------------|--------------------------|
|-------------------------|--------------------------|
|-------------------------|--------------------------|
|
|  W                         E  E  H.
|-------------------------|--------------------------|
|-------------------------|--------------------------|
|-10----------------------|-10s12-12-----------------|
|-------------------------|--------------------------|
|-------------------------|--------------------------|
|-------------------------|--------------------------|


    E  E  E  E  E  E  E  E     E   E  E  E   E  E  E  E
|--------------20----------|----------------15----------|
|-----18-17-18----18-17-18-|------18-17-18-----18-17-18-|
|--19----------------------|--19------------------------|
|--------------------------|----------------------------|
|--------------------------|----------------------------|
|--------------------------|----------------------------|
|
|   W                         +H             H
|--------------------------|----------------------------|
|-/10----------------------|-(10)----------/13----------|
|--------------------------|----------------------------|
|--------------------------|----------------------------|
|--------------------------|----------------------------|
|--------------------------|----------------------------|
|
|   W                         +H             H
|--------------------------|----------------------------|
|--------------------------|----------------------------|
|-/10----------------------|-(10)------------9----------|
|--------------------------|----------------------------|
|--------------------------|----------------------------|
|--------------------------|----------------------------|


    E  E  E  E  E  E  E  E     E   E  E  E  E  E  E  E
|--------------20----------|---------------15----------|
|-----18-17-18----18-17-18-|------18-17-18----18-17-18-|
|--19----------------------|--19-----------------------|
|--------------------------|---------------------------|
|--------------------------|---------------------------|
|--------------------------|---------------------------|
|
|   W                         +H            H
|--------------------------|---------------------------|
|--------------------------|---------------------------|
|---9----------------------|--(9)----------12----------|
|--------------------------|---------------------------|
|--------------------------|---------------------------|
|--------------------------|---------------------------|
|
|   W                         +H            H
|--------------------------|---------------------------|
|--------------------------|---------------------------|
|-/15----------------------|-(15)----------15----------|
|--------------------------|---------------------------|
|--------------------------|---------------------------|
|--------------------------|---------------------------|


   E  E  E  E  E  E  E  E     E   E  E  E  E  E  E  E
|-------------20----------|---------------15----------|
|----18-17-18----18-17-18-|------18-17-18----18-17-18-|
|-19----------------------|--19-----------------------|
|-------------------------|---------------------------|
|-------------------------|---------------------------|
|-------------------------|---------------------------|
|
|  W                         +H            H
|-------------------------|---------------------------|
|-------------------------|---------------------------|
|-10----------------------|-(10)-----------5----------|
|-------------------------|---------------------------|
|-------------------------|---------------------------|
|-------------------------|---------------------------|
|
|  W                         +H            H
|-------------------------|---------------------------|
|-------------------------|---------------------------|
|-14----------------------|-(14)-----------9----------|
|-------------------------|---------------------------|
|-------------------------|---------------------------|
|-------------------------|---------------------------|


   E  E  E  E  E  E  E  E    E  E  E   E  E  E  E  E
|-------------20----------|--------------15----------||
|----18-17-18----18-17-18-|----18-17--18----18-17-18-||
|-19----------------------|-19-----------------------||
|-------------------------|--------------------------||
|-------------------------|--------------------------||
|-------------------------|--------------------------||
|
|  W                         E  E  H.
|-------------------------|--------------------------||
|-------------------------|--------------------------||
|--7----------------------|--7s=9--9-----------------||
|-------------------------|--------------------------||
|-------------------------|--------------------------||
|-------------------------|--------------------------||
|
|  W                         E  E  H.
|-------------------------|--------------------------||
|-------------------------|--------------------------||
|-10----------------------|-10s12-12-----------------||
|-------------------------|--------------------------||
|-------------------------|--------------------------||
|-------------------------|--------------------------||


 Verse
  N.C.
    E  E  E  E  E  E  E  E     E   E  E  E   E  E  E  E
|--------------20----------|----------------15----------|
|-----18-17-18----18-17-18-|------18-17-18-----18-17-18-|
|--19----------------------|--19------------------------|
|--------------------------|----------------------------|
|--------------------------|----------------------------|
|--------------------------|----------------------------|
|
|   W                         +H             H
|--------------------------|----------------------------|
|-/10----------------------|-(10)----------/13----------|
|--------------------------|----------------------------|
|--------------------------|----------------------------|
|--------------------------|----------------------------|
|--------------------------|----------------------------|
|
|   W                         +H             H
|--------------------------|----------------------------|
|--------------------------|----------------------------|
|-/14----------------------|-(14)-----------12----------|
|--------------------------|----------------------------|
|--------------------------|----------------------------|
|--------------------------|----------------------------|


    E  E  E  E  E  E  E  E     E   E  E  E  E  E  E  E
|--------------20----------|---------------15----------|
|-----18-17-18----18-17-18-|------18-17-18----18-17-18-|
|--19----------------------|--19-----------------------|
|--------------------------|---------------------------|
|--------------------------|---------------------------|
|--------------------------|---------------------------|
|
|   W                         +H            H
|--------------------------|---------------------------|
|--------------------------|---------------------------|
|---9----------------------|--(9)----------12----------|
|--------------------------|---------------------------|
|--------------------------|---------------------------|
|--------------------------|---------------------------|
|
|   W                         +H            H
|--------------------------|---------------------------|
|--------------------------|---------------------------|
|-/15----------------------|-(15)----------15----------|
|--------------------------|---------------------------|
|--------------------------|---------------------------|
|--------------------------|---------------------------|


   E  E  E  E  E  E  E  E     E   E  E  E  E  E  E  E
|-------------20----------|---------------15----------|
|----18-17-18----18-17-18-|------18-17-18----18-17-18-|
|-19----------------------|--19-----------------------|
|-------------------------|---------------------------|
|-------------------------|---------------------------|
|-------------------------|---------------------------|
|
|  W                         +H            H
|-------------------------|---------------------------|
|-------------------------|---------------------------|
|-10----------------------|-(10)-----------5----------|
|-------------------------|---------------------------|
|-------------------------|---------------------------|
|-------------------------|---------------------------|
|
|  W                         +H            H
|-------------------------|---------------------------|
|-------------------------|---------------------------|
|-14----------------------|-(14)-----------9----------|
|-------------------------|---------------------------|
|-------------------------|---------------------------|
|-------------------------|---------------------------|


   E  E  E  E  E  E  E  E    E  E  E   E  E  E  E  E
|-------------20----------|--------------15----------|
|----18-17-18----18-17-18-|----18-17--18----18-17-18-|
|-19----------------------|-19-----------------------|
|-------------------------|--------------------------|
|-------------------------|--------------------------|
|-------------------------|--------------------------|
|
|  W                         E  E  H.
|-------------------------|--------------------------|
|-------------------------|--------------------------|
|--7----------------------|--7s=9--9-----------------|
|-------------------------|--------------------------|
|-------------------------|--------------------------|
|-------------------------|--------------------------|
|
|  W                         E  E  H.
|-------------------------|--------------------------|
|-------------------------|--------------------------|
|-10----------------------|-10s12-12-----------------|
|-------------------------|--------------------------|
|-------------------------|--------------------------|
|-------------------------|--------------------------|


    E  E  E  E  E  E  E  E     E   E  E  E   E  E  E  E
|--------------20----------|----------------15----------|
|-----18-17-18----18-17-18-|------18-17-18-----18-17-18-|
|--19----------------------|--19------------------------|
|--------------------------|----------------------------|
|--------------------------|----------------------------|
|--------------------------|----------------------------|
|
|   W                         +H             H
|--------------------------|----------------------------|
|-/10----------------------|-(10)----------/13----------|
|--------------------------|----------------------------|
|--------------------------|----------------------------|
|--------------------------|----------------------------|
|--------------------------|----------------------------|
|
|   W                         +H             H
|--------------------------|----------------------------|
|--------------------------|----------------------------|
|-/10----------------------|-(10)----------/14----------|
|--------------------------|----------------------------|
|--------------------------|----------------------------|
|--------------------------|----------------------------|


   E  E  E  E  E  E  E  E     E   E  E  E  E  E  E  E
|-------------20----------|---------------15----------|
|----18-17-18----18-17-18-|------18-17-18----18-17-18-|
|-19----------------------|--19-----------------------|
|-------------------------|---------------------------|
|-------------------------|---------------------------|
|-------------------------|---------------------------|
|
|  W                         +H            H
|-------------------------|---------------------------|
|-------------------------|---------------------------|
|--9----------------------|--(9)----------12----------|
|-------------------------|---------------------------|
|-------------------------|---------------------------|
|-------------------------|---------------------------|
|
|  W                         +H            H
|-------------------------|---------------------------|
|-------------------------|---------------------------|
|-15----------------------|-(15)----------15----------|
|-------------------------|---------------------------|
|-------------------------|---------------------------|
|-------------------------|---------------------------|


   E  E  E  E  E  E  E  E     E   E  E  E  E  E  E  E
|-------------20----------|---------------15----------|
|----18-17-18----18-17-18-|------18-17-18----18-17-18-|
|-19----------------------|--19-----------------------|
|-------------------------|---------------------------|
|-------------------------|---------------------------|
|-------------------------|---------------------------|
|
|  W                         +H            H
|-------------------------|---------------------------|
|-------------------------|---------------------------|
|-10----------------------|-(10)-----------5----------|
|-------------------------|---------------------------|
|-------------------------|---------------------------|
|-------------------------|---------------------------|
|
|  W                         +H            H
|-------------------------|---------------------------|
|-------------------------|---------------------------|
|-14----------------------|-(14)-----------9----------|
|-------------------------|---------------------------|
|-------------------------|---------------------------|
|-------------------------|---------------------------|


                                      D.C. al Coda
   E  E  E  E  E  E  E  E    E  E  E   E  E  E  E  E
|-------------20----------|--------------15----------||
|----18-17-18----18-17-18-|----18-17--18----18-17-18-||
|-19----------------------|-19-----------------------||
|-------------------------|--------------------------||
|-------------------------|--------------------------||
|-------------------------|--------------------------||
|
|  W                         E  E  H.
|-------------------------|--------------------------||
|-------------------------|--------------------------||
|--7----------------------|--7s=9--9-----------------||
|-------------------------|--------------------------||
|-------------------------|--------------------------||
|-------------------------|--------------------------||
|
|  W                         E  E  H.
|-------------------------|--------------------------||
|-------------------------|--------------------------||
|-10----------------------|-10s14-14-----------------||
|-------------------------|--------------------------||
|-------------------------|--------------------------||
|-------------------------|--------------------------||


 Verse
  &
  N.C.
    E  E  E  E  E  E  E  E     E   E  E  E   E  E  E  E
|--------------20----------|----------------15----------|
|-----18-17-18----18-17-18-|------18-17-18-----18-17-18-|
|--19----------------------|--19------------------------|
|--------------------------|----------------------------|
|--------------------------|----------------------------|
|--------------------------|----------------------------|
|
|   W                         +H             H
|--------------------------|----------------------------|
|-/10----------------------|-(10)----------/13----------|
|--------------------------|----------------------------|
|--------------------------|----------------------------|
|--------------------------|----------------------------|
|--------------------------|----------------------------|
|
|   W                         +H             H
|--------------------------|----------------------------|
|--------------------------|----------------------------|
|-/10----------------------|-(10)----------/14----------|
|--------------------------|----------------------------|
|--------------------------|----------------------------|
|--------------------------|----------------------------|


   E  E  E  E  E  E  E  E     E   E  E  E  E  E  E  E
|-------------20----------|---------------15----------|
|----18-17-18----18-17-18-|------18-17-18----18-17-18-|
|-19----------------------|--19-----------------------|
|-------------------------|---------------------------|
|-------------------------|---------------------------|
|-------------------------|---------------------------|
|
|  W                         +H            H
|-------------------------|---------------------------|
|-------------------------|---------------------------|
|--9----------------------|--(9)----------12----------|
|-------------------------|---------------------------|
|-------------------------|---------------------------|
|-------------------------|---------------------------|
|
|  W                         +H            H
|-------------------------|---------------------------|
|-------------------------|---------------------------|
|-15----------------------|-(15)----------15----------|
|-------------------------|---------------------------|
|-------------------------|---------------------------|
|-------------------------|---------------------------|


   E  E  E  E  E  E  E  E     E   E  E  E  E  E  E  E
|-------------20----------|---------------15----------|
|----18-17-18----18-17-18-|------18-17-18----18-17-18-|
|-19----------------------|--19-----------------------|
|-------------------------|---------------------------|
|-------------------------|---------------------------|
|-------------------------|---------------------------|
|
|  W                         +H            H
|-------------------------|---------------------------|
|-------------------------|---------------------------|
|-10----------------------|-(10)-----------5----------|
|-------------------------|---------------------------|
|-------------------------|---------------------------|
|-------------------------|---------------------------|
|
|  W                         +H            H
|-------------------------|---------------------------|
|-------------------------|---------------------------|
|-14----------------------|-(14)-----------9----------|
|-------------------------|---------------------------|
|-------------------------|---------------------------|
|-------------------------|---------------------------|


   E  E  E  E  E  E  E  E    E  E  E   E  E  E  E  E
|-------------20----------|--------------15----------|
|----18-17-18----18-17-18-|----18-17--18----18-17-18-|
|-19----------------------|-19-----------------------|
|-------------------------|--------------------------|
|-------------------------|--------------------------|
|-------------------------|--------------------------|
|
|  W                         E  E  H.
|-------------------------|--------------------------|
|-------------------------|--------------------------|
|--7----------------------|--7s=9--9-----------------|
|-------------------------|--------------------------|
|-------------------------|--------------------------|
|-------------------------|--------------------------|
|
|  W                         E  E  H.
|-------------------------|--------------------------|
|-------------------------|--------------------------|
|-10----------------------|-10s12-12-----------------|
|-------------------------|--------------------------|
|-------------------------|--------------------------|
|-------------------------|--------------------------|


    E  E  E  E  E  E  E  E     E   E  E  E   E  E  E  E
|--------------20----------|----------------15----------|
|-----18-17-18----18-17-18-|------18-17-18-----18-17-18-|
|--19----------------------|--19------------------------|
|--------------------------|----------------------------|
|--------------------------|----------------------------|
|--------------------------|----------------------------|
|
|   W                         +H             H
|--------------------------|----------------------------|
|-/10----------------------|-(10)----------/13----------|
|--------------------------|----------------------------|
|--------------------------|----------------------------|
|--------------------------|----------------------------|
|--------------------------|----------------------------|
|
|   W                         +H             H
|--------------------------|----------------------------|
|--------------------------|----------------------------|
|-/14----------------------|-(14)-----------12----------|
|--------------------------|----------------------------|
|--------------------------|----------------------------|
|--------------------------|----------------------------|


    E  E  E  E  E  E  E  E     E   E  E  E  E  E  E  E
|--------------20----------|---------------15----------|
|-----18-17-18----18-17-18-|------18-17-18----18-17-18-|
|--19----------------------|--19-----------------------|
|--------------------------|---------------------------|
|--------------------------|---------------------------|
|--------------------------|---------------------------|
|
|   W                         +H            H
|--------------------------|---------------------------|
|--------------------------|---------------------------|
|---9----------------------|--(9)----------12----------|
|--------------------------|---------------------------|
|--------------------------|---------------------------|
|--------------------------|---------------------------|
|
|   W                         +H            H
|--------------------------|---------------------------|
|--------------------------|---------------------------|
|-/15----------------------|-(15)----------15----------|
|--------------------------|---------------------------|
|--------------------------|---------------------------|
|--------------------------|---------------------------|


  $
   E  E  E  E  E  E  E  E     E   E  E  E  E  E  E  E
|-------------20----------|---------------15----------|
|----18-17-18----18-17-18-|------18-17-18----18-17----|
|-19----------------------|--19--------------------17-|
|-------------------------|---------------------------|
|-------------------------|---------------------------|
|-------------------------|---------------------------|
|
|  W                         +H            H
|-------------------------|---------------------------|
|-------------------------|---------------------------|
|-10----------------------|-(10)-----------5----------|
|-------------------------|---------------------------|
|-------------------------|---------------------------|
|-------------------------|---------------------------|
|
|  W                         +H            H
|-------------------------|---------------------------|
|-------------------------|---------------------------|
|-14----------------------|-(14)-----------9----------|
|-------------------------|---------------------------|
|-------------------------|---------------------------|
|-------------------------|---------------------------|


   H     H        H      H
|-------------|---------22----||
|-------17----|--18-----------||
|-19----------|---------------||
|-------------|---------------||
|-------------|---------------||
|-------------|---------------||
|
|  W             +W
|-------------|---------------||
|-------------|---------------||
|--7----------|--(7)----------||
|-------------|---------------||
|-------------|---------------||
|-------------|---------------||
|
|  W             +W
|-------------|---------------||
|-------------|---------------||
|-10----------|-(10)----------||
|-------------|---------------||
|-------------|---------------||
|-------------|---------------||


   Pre-Chorus
    A
    Gtr II
     E  E  E  E  E   E  E  E     E   E  E  E  E  E  E  E
||---------------------------|---------------------------|
||o--------------------------|---------------------------|
||--14-14-14-14-15--15-15-17-|--17--17-17-17-19-19-19-19-|
||---------------------------|---------------------------|
||o-12-12-12-12-13--13-13-15-|--15--15-15-15-17-17-17-17-|
||---------------------------|---------------------------|
|
|   Gtr I
|    E  E  E  E  E   E  E  E     E   E  E  E  E  E  E  E
||---------------------------|---------------------------|
||o--------------------------|---------------------------|
||--14-14-14-14-15--15-15-17-|--17--17-17-17-19-19-19-19-|
||---------------------------|---------------------------|
||o-12-12-12-12-13--13-13-15-|--15--15-15-15-17-17-17-17-|
||---------------------------|---------------------------|
|
|   Gtr III
|    H           Q.        E    +H            H
||--17----------18--------20-|-(20)----------22----------|
||o--------------------------|---------------------------|
||--14----------15--------17-|-(17)----------19----------|
||---------------------------|---------------------------|
||o-12----------13--------15-|-(15)----------17----------|
||---------------------------|---------------------------|


  D5                  N.C.
   E Q  E E Q  E    E E +E     +E  +E     +E  +E     +E
|----------------|----------------------------------------|
|----------------|----------------------------------------|
|----------------|----------------------------------------|
|--0-0--0-0-0--0-|--0-------------------------------------|
|--0-0--0-0-0--0-|--0-7-(7)b8--(7)-(7)b8--(7)-(7)b8--(7)--|
|--0-0--0-0-0--0-|--0-------------------------------------|
|
|  E Q  E E Q  E    E E +E     +E  +E     +E  +E     +E
|----------------|----------------------------------------|
|----------------|----------------------------------------|
|----------------|----9-(9)b10-(9)-(9)b10-(9)-(9)b10-(9)--|
|--0-0--0-0-0--0-|--0-------------------------------------|
|--0-0--0-0-0--0-|--0-------------------------------------|
|--0-0--0-0-0--0-|--0-------------------------------------|
|
|  W                H               H
|-25-------------|-24--------------20---------------------|
|-22-------------|-24--------------17---------------------|
|-22-------------|-24--------------17---------------------|
|-12-------------|--7--------------(7)--------------------|
|-12-------------|--7--------------(7)--------------------|
|-12-------------|--7--------------(7)--------------------|
   W                H              +H


  N.C.
   E  E  E  E  E   E  E  E     E   E  E  E  E  E  E  E
|--------------------------|---------------------------|
|--------------------------|---------------------------|
|-14-14-14-14-15--15-15-17-|--17--17-17-17-19-19-19-19-|
|--------------------------|---------------------------|
|-12-12-12-12-13--13-13-15-|--15--15-15-15-17-17-17-17-|
|--------------------------|---------------------------|
|
|  E  E  E  E  E   E  E  E     E   E  E  E  E  E  E  E
|--------------------------|---------------------------|
|--------------------------|---------------------------|
|-14-14-14-14-15--15-15-17-|--17--17-17-17-19-19-19-19-|
|--------------------------|---------------------------|
|-12-12-12-12-13--13-13-15-|--15--15-15-15-17-17-17-17-|
|--------------------------|---------------------------|
|
|  H           Q.        E    +H            H
|-17----------18--------20-|-(20)----------22----------|
|--------------------------|---------------------------|
|-14----------15--------17-|-(17)----------19----------|
|--------------------------|---------------------------|
|-12----------13--------15-|-(15)----------17----------|
|--------------------------|---------------------------|


 1.
  D5                  N.C.
   E Q  E E Q  E    E E +E     +E  +E     +E  +E     +E
|----------------|----------------------------------------||
|----------------|---------------------------------------o||
|----------------|----------------------------------------||
|--0-0--0-0-0--0-|--0-------------------------------------||
|--0-0--0-0-0--0-|--0-7-(7)b8--(7)-(7)b8--(7)-(7)b8--(7)-o||
|--0-0--0-0-0--0-|--0-------------------------------------||
|
|  E Q  E E Q  E    E E +E     +E  +E     +E  +E     +E
|----------------|----------------------------------------||
|----------------|---------------------------------------o||
|----------------|----9-(9)b10-(9)-(9)b10-(9)-(9)b10-(9)--||
|--0-0--0-0-0--0-|--0-------------------------------------||
|--0-0--0-0-0--0-|--0------------------------------------o||
|--0-0--0-0-0--0-|--0-------------------------------------||
|
|  W                H               H
|-25-------------|-27--------------29---------------------||
|-22-------------|-29--------------25--------------------o||
|-22-------------|-24--------------26---------------------||
|-12-------------|--7--------------(7)--------------------||
|-12-------------|--7--------------(7)-------------------o||
|-12-------------|--7--------------(7)--------------------||
   W                H              +H


 Chorus
  2.
  F5                                      G5
   E  E  E  E  E  E  E  E     E   E  E  E  E  E  E  E
|-------------------------|---------------------------|
|-------------------------|---------------------------|
|--------------5----------|---------------------------|
|-------------------------|----------------5----------|
|--5--8--7--8-----8--7--8-|---5---8--7--8-----8--7--8-|
|-------------------------|---------------------------|
|
|  E  E  E  E  E  E  E  E     E   E  E  E  E  E  E  E
|-------------------------|---------------------------|
|-------------------------|---------------------------|
|-------------------------|---------------------------|
|--3--3--3--3--3--3--3--3-|---3---3--3--3--5--5--5--5-|
|--3--3--3--3--3--3--3--3-|---3---3--3--3--5--5--5--5-|
|--3--3--3--3--3--3--3--3-|---3---3--3--3--5--5--5--5-|
|
|  E  E  E  E  E  E  E  E     E   E  E  E  E  E  E  E
|-------------20----------|---------------15----------|
|-15-18-17-18----18-17-18-|--15--18-17-18----18-17-18-|
|-10----------------------|-(10)----------12----------|
|-10----------------------|-(10)----------12----------|
|--8----------------------|--(8)----------10----------|
|-10----------------------|-(10)----------12----------|
   W                         +H            H


  D5
   E  E  E  E  E  E  E  E    E   E  E  E  E  E  E  E
|-------------------------|--------------------------|
|-------------------------|--------------------------|
|--------------5----------|--------------------------|
|-------------------------|---------------5----------|
|--5--8--7--8-----8--7--8-|--5---8--7--8-----8--7--8-|
|-------------------------|--------------------------|
|
|  E  E  E  E  E  E  E  E    E   E  E  E  E  E  E  E
|-------------------------|--------------------------|
|-------------------------|--------------------------|
|-------------------------|--------------------------|
|--0--0--0--0--0--0--0--0-|--0---0--0--0--0--0--0--0-|
|--0--0--0--0--0--0--0--0-|--0---0--0--0--0--0--0--0-|
|--0--0--0--0--0--0--0--0-|--0---0--0--0--0--0--0--0-|
|
|  E  E  E  E  E  E  E  E    E   E  E  E  E  E  E  E
|-------------20----------|--------------15----------|
|-15-18-17-18----18-17-18-|-15--18-17-18----18-17-18-|
|--7----------------------|-(7)----------------------|
|--7----------------------|-(7)----------------------|
|--5----------------------|-(5)----------------------|
|--7----------------------|-(7)----------------------|
   W                        +W


  F5                                      G5
   E  E  E  E  E  E  E  E     E   E  E  E  E  E  E  E
|-------------------------|---------------------------|
|-------------------------|---------------------------|
|--------------5----------|---------------------------|
|-------------------------|----------------5----------|
|--5--8--7--8-----8--7--8-|---5---8--7--8-----8--7--8-|
|-------------------------|---------------------------|
|
|  E  E  E  E  E  E  E  E     E   E  E  E  E  E  E  E
|-------------------------|---------------------------|
|-------------------------|---------------------------|
|-------------------------|---------------------------|
|--3--3--3--3--3--3--3--3-|---3---3--3--3--5--5--5--5-|
|--3--3--3--3--3--3--3--3-|---3---3--3--3--5--5--5--5-|
|--3--3--3--3--3--3--3--3-|---3---3--3--3--5--5--5--5-|
|
|  E  E  E  E  E  E  E  E     E   E  E  E  E  E  E  E
|-------------20----------|---------------15----------|
|-15-18-17-18----18-17-18-|--15--18-17-18----18-17-18-|
|-10----------------------|-(10)----------12----------|
|-10----------------------|-(10)----------12----------|
|--8----------------------|--(8)----------10----------|
|-10----------------------|-(10)----------12----------|
   W                         +H            H


  Bb5                       A5
   E  E  E  E  E  E  E  E    E  E  E  E  E  E  E  E
|-------------------------|-------------------------|
|-------------------------|-------------------------|
|--------------5----------|-------------------------|
|-------------------------|--------------5----------|
|--5--8--7--8-----8--7--8-|--5--8--7--8-----8--7--8-|
|-------------------------|-------------------------|
|
|  E  E  E  E  E  E  E  E    E  E  E  E  E  E  E  E
|-------------------------|-------------------------|
|-------------------------|-------------------------|
|-------------------------|-------------------------|
|--8--8--8--8--8--8--8--8-|--7--7--7--7--7--7--7--7-|
|--8--8--8--8--8--8--8--8-|--7--7--7--7--7--7--7--7-|
|--8--8--8--8--8--8--8--8-|--7--7--7--7--7--7--7--7-|
|
|  E  E  E  E  E  E  E  E    E  E  E  E  E  E  E  E
|-------------20----------|-------------15----------|
|-15-18-17-18----18-17-18-|-15-18-17-18----18-17-18-|
|-15----------------------|-14----------------------|
|-15----------------------|-14----------------------|
|-13----------------------|-12----------------------|
|-15----------------------|-14----------------------|
   W                         W


  F5                                      G5
  Gtr I
   E  E  E  E  E  E  E  E     E   E  E  E  E  E  E  E
   |  |  |  |  |  |  |  |     |   |  |  |  |  |  |  |
   /  /  /  /  /  /  /  /     /   /  /  /  /  /  /  /

   E  E  E  E  E  E  E  E     E   E  E  E  E  E  E  E
|-------------------------|---------------------------|
|-------------------------|---------------------------|
|--------------5----------|---------------------------|
|-------------------------|----------------5----------|
|--5--8--7--8-----8--7--8-|---5---8--7--8-----8--7--8-|
|-------------------------|---------------------------|
|
| Gtr IV
|  W                          W
|-------------------------|---------------------------|
|-------------------------|---------------------------|
|-------------------------|---------------------------|
|-------------------------|---------------------------|
|-------------------------|---------------------------|
|-------------------------|---------------------------|
|
|  E  E  E  E  E  E  E  E     E   E  E  E  E  E  E  E
|-------------20----------|---------------15----------|
|-15-18-17-18----18-17-18-|--15--18-17-18----18-17-18-|
|-10----------------------|-(10)----------12----------|
|-10----------------------|-(10)----------12----------|
|--8----------------------|--(8)----------10----------|
|-10----------------------|-(10)----------12----------|
   W                         +H            H


  D5
   E  E  E  E  E  E  E  E    E   E  E  E  E  E  E  E
   |  |  |  |  |  |  |  |    |   |  |  |  |  |  |  |
   /  /  /  /  /  /  /  /    /   /  /  /  /  /  /  /

   E  E  E  E  E  E  E  E    E   E  E  E  E  E  E  E
|-------------------------|--------------------------|
|-------------------------|--------------------------|
|--------------5----------|--------------------------|
|-------------------------|---------------5----------|
|--5--8--7--8-----8--7--8-|--5---8--7--8-----8--7--8-|
|-------------------------|--------------------------|
|
|  W                         E   E  E  E  E  E  E  E
|-------------------------|------0--0--0--0--0--0--0-|
|-------------------------|------6--6--6--6--6--6--6-|
|-------------------------|------5--5--5--5--5--5--5-|
|-------------------------|--------------------------|
|-------------------------|--------------------------|
|-------------------------|--------------------------|
|
|  E  E  E  E  E  E  E  E    E   E  E  E  E  E  E  E
|-------------20----------|--------------15----------|
|-15-18-17-18----18-17-18-|-15--18-17-18----18-17-18-|
|--7----------------------|-(7)----------------------|
|--7----------------------|-(7)----------------------|
|--5----------------------|-(5)----------------------|
|--7----------------------|-(7)----------------------|
   W                        +W


  F5                                      G5
   E  E  E  E  E  E  E  E     E   E  E  E  E  E  E  E
   |  |  |  |  |  |  |  |     |   |  |  |  |  |  |  |
   /  /  /  /  /  /  /  /     /   /  /  /  /  /  /  /

   E  E  E  E  E  E  E  E     E   E  E  E  E  E  E  E
|-------------------------|---------------------------|
|-------------------------|---------------------------|
|--------------5----------|---------------------------|
|-------------------------|----------------5----------|
|--5--8--7--8-----8--7--8-|---5---8--7--8-----8--7--8-|
|-------------------------|---------------------------|
|
| Gtr III
|  E  E  E  E  E  E  E  E     E   E  E  E  E  E  E  E
|-------------20----------|---------------15----------|
|-15-18-17-18----18-17-18-|--15--18-17-18----18-17-18-|
|-10----------------------|-(10)----------12----------|
|-10----------------------|-(10)----------12----------|
|--8----------------------|--(8)----------10----------|
|-10----------------------|-(10)----------12----------|
   W                         +H            H


                                     To Dbl. Coda
  Bb5                       A5
   E  E  E  E  E  E  E  E    E  E  E  E  E  E  E  E
   |  |  |  |  |  |  |  |    |  |  |  |  |  |  |  |
   /  /  /  /  /  /  /  /    /  /  /  /  /  /  /  /

   E  E  E  E  E  E  E  E    E  E  E  E  E  E  E  E
|-------------------------|-------------------------||
|-------------------------|-------------------------||
|--------------5----------|-------------------------||
|-------------------------|--------------5----------||
|--5--8--7--8-----8--7--8-|--5--8--7--8-----8--7--8-||
|-------------------------|-------------------------||
|
|  E  E  E  E  E  E  E  E    E  E  E  E  E  E  E  E
|-------------20----------|-------------15----------||
|-15-18-17-18----18-17-18-|-15-18-17-18----18-17-18-||
|-15----------------------|-14----------------------||
|-15----------------------|-14----------------------||
|-13----------------------|-12----------------------||
|-15----------------------|-14----------------------||
   W                         W


 Bridge/Verse
  D5
  Gtr V
   E  E  E  E  E  E  E  E    E   E  E  E  E  E  E  E
|-------------20----------|--------------15----------|
|----18-17-18----18-17-18-|-----18-17-18----18-17-18-|
|-19----------------------|-19-----------------------|
|-------------------------|--------------------------|
|-------------------------|--------------------------|
|-------------------------|--------------------------|
|
| Gtrs I, II
|  >
|  W                        +W
|-------------------------|--------------------------|
|-------------------------|--------------------------|
|-------------------------|--------------------------|
|--0----------------------|-(0)----------------------|
|--0----------------------|-(0)----------------------|
|--0----------------------|-(0)----------------------|


   E   E  E  E  E  E  E  E    E   E  E  E  E  E  E  E
|--------------20----------|--------------15----------|
|-----18-17-18----18-17-18-|-----18-17-18----18-17-18-|
|-19-----------------------|-19-----------------------|
|--------------------------|--------------------------|
|--------------------------|--------------------------|
|--------------------------|--------------------------|
|
| +W                         +W
|--------------------------|--------------------------|
|--------------------------|--------------------------|
|--------------------------|--------------------------|
|-(0)----------------------|-(0)----------------------|
|-(0)----------------------|-(0)----------------------|
|-(0)----------------------|-(0)----------------------|


    N.C.
      E  E  E  E  E  E  E  E     E   E  E  E   E  E  E  E
||---------------20----------|----------------15----------|
||o-----18-17-18----18-17-18-|------18-17-18-----18-17-18-|
||---19----------------------|--19------------------------|
||---------------------------|----------------------------|
||o--------------------------|----------------------------|
||---------------------------|----------------------------|
|
|   Gtr II
|     W                         +H             H
||---------------------------|----------------------------|
||o-/10----------------------|-(10)----------/13----------|
||---------------------------|----------------------------|
||---------------------------|----------------------------|
||o--------------------------|----------------------------|
||---------------------------|----------------------------|
|
|   Gtr I
|     W                         +H             H
||---------------------------|----------------------------|
||o--------------------------|----------------------------|
||--/10----------------------|-(10)----------/14----------|
||---------------------------|----------------------------|
||o--------------------------|----------------------------|
||---------------------------|----------------------------|


   E  E  E  E  E  E  E  E     E   E  E  E  E  E  E  E
|-------------20----------|---------------15-----------|
|----18-17-18----18-17-18-|------18-17-18----18-17-18--|
|-19----------------------|--19------------------------|
|-------------------------|----------------------------|
|-------------------------|----------------------------|
|-------------------------|----------------------------|
|
|  W                         +H            H
|-------------------------|----------------------------|
|-------------------------|----------------------------|
|--9----------------------|--(9)----------12-----------|
|-------------------------|----------------------------|
|-------------------------|----------------------------|
|-------------------------|----------------------------|
|
|  W                         +H            H
|-------------------------|----------------------------|
|-------------------------|----------------------------|
|-15----------------------|-(15)----------15-----------|
|-------------------------|----------------------------|
|-------------------------|----------------------------|
|-------------------------|----------------------------|


   E  E  E  E  E  E  E  E     E   E  E  E  E  E  E  E
|-------------20----------|---------------15----------|
|----18-17-18----18-17-18-|------18-17-18----18-17-18-|
|-19----------------------|--19-----------------------|
|-------------------------|---------------------------|
|-------------------------|---------------------------|
|-------------------------|---------------------------|
|
|  W                         +H            H
|-------------------------|---------------------------|
|-------------------------|---------------------------|
|-10----------------------|-(10)-----------5----------|
|-------------------------|---------------------------|
|-------------------------|---------------------------|
|-------------------------|---------------------------|
|
|  W                         +H            H
|-------------------------|---------------------------|
|-------------------------|---------------------------|
|-14----------------------|-(14)-----------9----------|
|-------------------------|---------------------------|
|-------------------------|---------------------------|
|-------------------------|---------------------------|


   E  E  E  E  E  E  E  E    E  E  E   E  E  E  E  E
|-------------20----------|--------------15----------|
|----18-17-18----18-17-18-|----18-17--18----18-17-18-|
|-19----------------------|-19-----------------------|
|-------------------------|--------------------------|
|-------------------------|--------------------------|
|-------------------------|--------------------------|
|
|  W                         E  E  H.
|-------------------------|--------------------------|
|-------------------------|--------------------------|
|--7----------------------|--7s=9--9-----------------|
|-------------------------|--------------------------|
|-------------------------|--------------------------|
|-------------------------|--------------------------|
|
|  W                         E  E  H.
|-------------------------|--------------------------|
|-------------------------|--------------------------|
|-10----------------------|-10s12-12-----------------|
|-------------------------|--------------------------|
|-------------------------|--------------------------|
|-------------------------|--------------------------|


    E  E  E  E  E  E  E  E     E   E  E  E   E  E  E  E
|--------------20----------|----------------15----------|
|-----18-17-18----18-17-18-|------18-17-18-----18-17-18-|
|--19----------------------|--19------------------------|
|--------------------------|----------------------------|
|--------------------------|----------------------------|
|--------------------------|----------------------------|
|
|   W                         +H             H
|--------------------------|----------------------------|
|-/10----------------------|-(10)----------/13----------|
|--------------------------|----------------------------|
|--------------------------|----------------------------|
|--------------------------|----------------------------|
|--------------------------|----------------------------|
|
|   W                         +H             H
|--------------------------|----------------------------|
|--------------------------|----------------------------|
|-/10----------------------|-(10)------------9----------|
|--------------------------|----------------------------|
|--------------------------|----------------------------|
|--------------------------|----------------------------|


                                   D.S. al Dbl. Coda
    E  E  E  E  E  E  E  E     E   E  E  E  E  E  E  E
|--------------20----------|---------------15----------|
|-----18-17-18----18-17-18-|------18-17-18----18-17-18-|
|--19----------------------|--19-----------------------|
|--------------------------|---------------------------|
|--------------------------|---------------------------|
|--------------------------|---------------------------|
|
|   W                         +H            H
|--------------------------|---------------------------|
|--------------------------|---------------------------|
|---9----------------------|--(9)----------12----------|
|--------------------------|---------------------------|
|--------------------------|---------------------------|
|--------------------------|---------------------------|
|
|   W                         +H            H
|--------------------------|---------------------------|
|--------------------------|---------------------------|
|-/15----------------------|-(15)----------15----------|
|--------------------------|---------------------------|
|--------------------------|---------------------------|
|--------------------------|---------------------------|


   E  E  E  E  E  E  E  E     E   E  E  E  E  E  E  E
|-------------20----------|---------------15----------|
|----18-17-18----18-17-18-|------18-17-18----18-17-18-|
|-19----------------------|--19-----------------------|
|-------------------------|---------------------------|
|-------------------------|---------------------------|
|-------------------------|---------------------------|
|
|  W                         +H            H
|-------------------------|---------------------------|
|-------------------------|---------------------------|
|-10----------------------|-(10)-----------5----------|
|-------------------------|---------------------------|
|-------------------------|---------------------------|
|-------------------------|---------------------------|
|
|  W                         +H            H
|-------------------------|---------------------------|
|-------------------------|---------------------------|
|-14----------------------|-(14)-----------9----------|
|-------------------------|---------------------------|
|-------------------------|---------------------------|
|-------------------------|---------------------------|


   E  E  E  E  E  E  E  E    E  E  E   E  E  E  E  E
|-------------20----------|--------------15-----------||
|----18-17-18----18-17-18-|----18-17--18----18-17-18-o||
|-19----------------------|-19------------------------||
|-------------------------|---------------------------||
|-------------------------|--------------------------o||
|-------------------------|---------------------------||
|
|  W                         E  E  H.
|-------------------------|---------------------------||
|-------------------------|--------------------------o||
|--7----------------------|--7s=9--9------------------||
|-------------------------|---------------------------||
|-------------------------|--------------------------o||
|-------------------------|---------------------------||
|
|  W                         E  E  H.
|-------------------------|---------------------------||
|-------------------------|--------------------------o||
|-10----------------------|-10s12-12------------------||
|-------------------------|---------------------------||
|-------------------------|--------------------------o||
|-------------------------|---------------------------||


 Breakdown
  &&
  D5
  Gtr II
  E  E E  E E  E E  E    E   E E  E E  E E  E
|-----------8---------|-----------------------|
|---------------------|-------------8---------|
|-7-10-9-10-5-10-9-10-|--7--10-9-10---10-9-10-|
|---------------------|-------------5---------|
|-5--8-7--8----8-7--8-|--5---8-7--8----8-7--8-|
|---------------------|-----------------------|
|
| Gtr IV
| W                     +W
|---------------------|-----------------------|
|---------------------|-----------------------|
|---------------------|-----------------------|
|-0-------------------|-(0)-------------------|
|-0-------------------|-(0)-------------------|
|-0-------------------|-(0)-------------------|


                                      Eb5
   E   E E  E E  E E  E    E   E E  E E  E E  E
|-------------8---------|-----------------------|
|-----------------------|-------------8---------|
|--7--10-9-10-5-10-9-10-|--7--10-9-10---10-9-10-|
|-----------------------|-------------5---------|
|--5---8-7--8----8-7--8-|--5---8-7--8----8-7--8-|
|-----------------------|-----------------------|
|
| +W                      +H          H
|-----------------------|-----------------------|
|-----------------------|-----------------------|
|-----------------------|-----------------------|
|-(0)-------------------|-(0)---------1---------|
|-(0)-------------------|-(0)---------1---------|
|-(0)-------------------|-(0)---------1---------|


  D5
  E  E E  E E  E E  E    E   E E  E E  E E  E
|-----------8---------|-----------------------|
|---------------------|-------------8---------|
|-7-10-9-10-5-10-9-10-|--7--10-9-10---10-9-10-|
|---------------------|-------------5---------|
|-5--8-7--8----8-7--8-|--5---8-7--8----8-7--8-|
|---------------------|-----------------------|
|
| W                     +W
|---------------------|-----------------------|
|---------------------|-----------------------|
|---------------------|-----------------------|
|-0-------------------|-(0)-------------------|
|-0-------------------|-(0)-------------------|
|-0-------------------|-(0)-------------------|


                                      Ab5
   E   E E  E E  E E  E    E   E E  E E  E E  E
|-------------8---------|-----------------------|
|-----------------------|-------------8---------|
|--7--10-9-10-5-10-9-10-|--7--10-9-10---10-9-10-|
|-----------------------|-------------5---------|
|--5---8-7--8----8-7--8-|--5---8-7--8----8-7--8-|
|-----------------------|-----------------------|
|
| +W                      +H          H
|-----------------------|-----------------------|
|-----------------------|-----------------------|
|-----------------------|-----------------------|
|-(0)-------------------|-(0)---------6---------|
|-(0)-------------------|-(0)---------6---------|
|-(0)-------------------|-(0)---------6---------|


    D5                                Eb5
    E  E E  E E  E E  E   E  E E  E E  E  E  E
||------------8---------|----------------------|
||o---------------------|-----------8----------|
||--7-10-9-10-5-10-9-10-|-7-10-9-10---10--9-10-|
||----------------------|-----------5----------|
||o-5--8-7--8----8-7--8-|-5--8-7--8----8--7--8-|
||----------------------|----------------------|
|
|        PM---|    PM-----|    PM---|
|   Q    E  E E  E E  E   E  E E  E E  Q.
||----------------------|----------------------|
||o---------------------|----------------------|
||----------------------|----------------------|
||--0-------------------|--------------1-------|
||o-0----0--0-0----0--0-|-0----0--0-0--1-------|
||--0----0--0-0----0--0-|-0----0--0-0--1-------|


  D5                                Ab5
  E  E E  E E  E E  E   E  E E  E E  E  E  E
|-----------8---------|------------------------||
|---------------------|-----------8-----------o||
|-7-10-9-10-5-10-9-10-|-7-10-9-10---10--9-10---||
|---------------------|-----------5------------||
|-5--8-7--8----8-7--8-|-5--8-7--8----8--7--8--o||
|---------------------|------------------------||
|
|      PM---|    PM-----|    PM---|
| Q    E  E E  E E  E   E  E E  E E  Q.
|---------------------|------------------------||
|---------------------|-----------------------o||
|---------------------|------------------------||
|-0-------------------|--------------6---------||
|-0----0--0-0----0--0-|-0----0--0-0--6--------o||
|-0----0--0-0----0--0-|-0----0--0-0--6---------||


    N.C.
     E  E  E  E  E   E  E  E     E   E  E  E  E  E  E  E
||---------------------------|---------------------------|
||o--------------------------|---------------------------|
||--14-14-14-14-15--15-15-17-|--17--17-17-17-19-19-19-19-|
||---------------------------|---------------------------|
||o-12-12-12-12-13--13-13-15-|--15--15-15-15-17-17-17-17-|
||---------------------------|---------------------------|
|
|    E  E  E  E  E   E  E  E     E   E  E  E  E  E  E  E
||---------------------------|---------------------------|
||o--------------------------|---------------------------|
||--14-14-14-14-15--15-15-17-|--17--17-17-17-19-19-19-19-|
||---------------------------|---------------------------|
||o-12-12-12-12-13--13-13-15-|--15--15-15-15-17-17-17-17-|
||---------------------------|---------------------------|
|
|   Gtr III
|    H           Q.        E    +H            H
||--17----------18--------20-|-(20)----------22----------|
||o--------------------------|---------------------------|
||--14----------15--------17-|-(17)----------19----------|
||---------------------------|---------------------------|
||o-12----------13--------15-|-(15)----------17----------|
||---------------------------|---------------------------|


  D5                  N.C.
   E Q  E E Q  E    E E +E     +E  +E     +E  +E     +E
|----------------|----------------------------------------|
|----------------|----------------------------------------|
|----------------|----------------------------------------|
|--0-0--0-0-0--0-|--0-------------------------------------|
|--0-0--0-0-0--0-|--0-7-(7)b8--(7)-(7)b8--(7)-(7)b8--(7)--|
|--0-0--0-0-0--0-|--0-------------------------------------|
|
|  E Q  E E Q  E    E E +E     +E  +E     +E  +E     +E
|----------------|----------------------------------------|
|----------------|----------------------------------------|
|----------------|----9-(9)b10-(9)-(9)b10-(9)-(9)b10-(9)--|
|--0-0--0-0-0--0-|--0-------------------------------------|
|--0-0--0-0-0--0-|--0-------------------------------------|
|--0-0--0-0-0--0-|--0-------------------------------------|
|
|  W                H               H
|-25-------------|-24--------------20---------------------|
|-22-------------|-24--------------17---------------------|
|-22-------------|-24--------------17---------------------|
|-12-------------|--7--------------(7)--------------------|
|-12-------------|--7--------------(7)--------------------|
|-12-------------|--7--------------(7)--------------------|
   W                H              +H


  1.
  N.C.
   E  E  E  E  E   E  E  E     E   E  E  E  E  E  E  E
|--------------------------|---------------------------|
|--------------------------|---------------------------|
|-14-14-14-14-15--15-15-17-|--17--17-17-17-19-19-19-19-|
|--------------------------|---------------------------|
|-12-12-12-12-13--13-13-15-|--15--15-15-15-17-17-17-17-|
|--------------------------|---------------------------|
|
|  E  E  E  E  E   E  E  E     E   E  E  E  E  E  E  E
|--------------------------|---------------------------|
|--------------------------|---------------------------|
|-14-14-14-14-15--15-15-17-|--17--17-17-17-19-19-19-19-|
|--------------------------|---------------------------|
|-12-12-12-12-13--13-13-15-|--15--15-15-15-17-17-17-17-|
|--------------------------|---------------------------|
|
|  H           Q.        E    +H            H
|-17----------18--------20-|-(20)----------22----------|
|--------------------------|---------------------------|
|-14----------15--------17-|-(17)----------19----------|
|--------------------------|---------------------------|
|-12----------13--------15-|-(15)----------17----------|
|--------------------------|---------------------------|


  D5                  N.C.
   E Q  E E Q  E    E E +E     +E  +E     +E  +E     +E
|----------------|----------------------------------------||
|----------------|---------------------------------------o||
|----------------|----------------------------------------||
|--0-0--0-0-0--0-|--0-------------------------------------||
|--0-0--0-0-0--0-|--0-7-(7)b8--(7)-(7)b8--(7)-(7)b8--(7)-o||
|--0-0--0-0-0--0-|--0-------------------------------------||
|
|  E Q  E E Q  E    E E +E     +E  +E     +E  +E     +E
|----------------|----------------------------------------||
|----------------|---------------------------------------o||
|----------------|----9-(9)b10-(9)-(9)b10-(9)-(9)b10-(9)--||
|--0-0--0-0-0--0-|--0-------------------------------------||
|--0-0--0-0-0--0-|--0------------------------------------o||
|--0-0--0-0-0--0-|--0-------------------------------------||
|
|  W                H               H
|-25-------------|-27--------------29---------------------||
|-22-------------|-29--------------25--------------------o||
|-22-------------|-24--------------26---------------------||
|-12-------------|--7--------------(7)--------------------||
|-12-------------|--7--------------(7)-------------------o||
|-12-------------|--7--------------(7)--------------------||
   W                H              +H


  2.
  N.C.
   E  E  E  E  E   E  E  E     E   E  E  E  E  E  E  E
|--------------------------|---------------------------||
|--------------------------|---------------------------||
|-19-19-19-19-17--17-17-15-|--15--15-15-15-14-14-14-14-||
|--------------------------|---------------------------||
|-17-17-17-17-15--15-15-13-|--13--13-13-13-12-12-12-12-||
|--------------------------|---------------------------||
|
|  E  E  E  E  E   E  E  E     E   E  E  E  E  E  E  E
|--------------------------|---------------------------||
|--------------------------|---------------------------||
|-19-19-19-19-17--17-17-15-|--15--15-15-15-14-14-14-14-||
|--------------------------|---------------------------||
|-17-17-17-17-15--15-15-13-|--13--13-13-13-12-12-12-12-||
|--------------------------|---------------------------||
|
|  H           Q.        E    +H            H
|-17----------18--------20-|-(20)----------22----------||
|--------------------------|---------------------------||
|-14----------15--------17-|-(17)----------19----------||
|--------------------------|---------------------------||
|-12----------13--------15-|-(15)----------17----------||
|--------------------------|---------------------------||


 Outro
  D5
   E  E    E  E  E  E  E  E     E   E   E E E E E E
|---------------------------|-----------------------|
|---------------------------|-----------------------|
|----10---10-10-10-10-10-10-|-------9---9-9-9-9-9-9-|
|---------------------------|-----------------------|
|--0--8----8--8--8--8--8--8-|---0---7---7-7-7-7-7-7-|
|--0------------------------|---0-------------------|
|
|  E  E    E  E  E  E  E  E     E   E   E E E E E E
|---------------------------|-----------------------|
|---------------------------|-----------------------|
|---------------------------|-----------------------|
|--0--0----0--0--0--0--0--0-|---0---0---0-0-0-0-0-0-|
|--0--0----0--0--0--0--0--0-|---0---0---0-0-0-0-0-0-|
|--0--0----0--0--0--0--0--0-|---0---0---0-0-0-0-0-0-|
|
|  E  H..                      +E   H..
|----25---------------------|-(25)-24---------------|
|---------------------------|-----------------------|
|----22---------------------|-(22)-21---------------|
|-12------------------------|-(12)------------------|
|-12------------------------|-(12)------------------|
|-12------------------------|-(12)------------------|
   W                           +W


       G5                 D5   F5
    E   E   E E E E E E     E   E E E E  E  E E
|-----------------------|-----------------------|
|-----------------------|-----------------------|
|-------7---7-7-7-7-7-7-|-------5-5-5-5s=7--7-7-|
|-----------------------|-----------------------|
|---0---5---5-5-5-5-5-5-|---0---3-3-3-3s=5--5-5-|
|---0-------------------|---0-------------------|
|
|   E   E   E E E E E E     E   E E E E  E  E E
|-----------------------|-----------------------|
|-----------------------|-----------------------|
|-----------------------|-----------------------|
|---0---5---5-5-5-5-5-5-|---0---3-3-3-3--3--3-3-|
|---0---5---5-5-5-5-5-5-|---0---3-3-3-3--3--3-3-|
|---0---5---5-5-5-5-5-5-|---0---3-3-3-3--3--3-3-|
|
|  +E   H..                +E   H        Q.
|-(24)-22---------------|-(22)-20-------22------|
|-----------------------|-----------------------|
|-(21)-19---------------|-(19)-17-------19------|
|-(12)--5---------------|--(5)--3-------(3)-----|
|-(12)--5---------------|--(5)--3-------(3)-----|
|-(12)--5---------------|--(5)--3-------(3)-----|
   +E   H..                +E   H       +Q.


  D5
    E   E    E  E  E  E  E  E     E   E   E E E E E E
|-----------------------------|-----------------------|
|-----------------------------|-----------------------|
|------10---10-10-10-10-10-10-|-------9---9-9-9-9-9-9-|
|-----------------------------|-----------------------|
|---0---8----8--8--8--8--8--8-|---0---7---7-7-7-7-7-7-|
|---0-------------------------|---0-------------------|
|
|   E   E    E  E  E  E  E  E     E   E   E E E E E E
|-----------------------------|-----------------------|
|-----------------------------|-----------------------|
|-----------------------------|-----------------------|
|---0---0----0--0--0--0--0--0-|---0---0---0-0-0-0-0-0-|
|---0---0----0--0--0--0--0--0-|---0---0---0-0-0-0-0-0-|
|---0---0----0--0--0--0--0--0-|---0---0---0-0-0-0-0-0-|
|
|  +E   H..                      +E   H..
|-(22)-25---------------------|-(25)-24---------------|
|-----------------------------|-----------------------|
|-(19)-22---------------------|-(22)-21---------------|
|--12-------------------------|--12-------------------|
|--12-------------------------|--12-------------------|
|--12-------------------------|--12-------------------|
    W                             W


       C5                       D5   F5
    E   E    E  E  E  E  E  E     E   E    E  E  E  E  E  E
|-----------------------------|-----------------------------|
|-----------------------------|-----------------------------|
|------14---14-14-14-14-14-14-|------12---12-12-12-12-12-12-|
|-----------------------------|-----------------------------|
|---0--12---12-12-12-12-12-12-|---0--10---10-10-10-10-10-10-|
|---0-------------------------|---0-------------------------|
|
|   E   E    E  E  E  E  E  E     E   E    E  E  E  E  E  E
|-----------------------------|-----------------------------|
|-----------------------------|-----------------------------|
|-----------------------------|-----------------------------|
|---0--10---10-10-10-10-10-10-|---0---3----3--3--3--3--3--3-|
|---0--10---10-10-10-10-10-10-|---0---3----3--3--3--3--3--3-|
|---0--10---10-10-10-10-10-10-|---0---3----3--3--3--3--3--3-|
|
|  +E   H..                      +E   H..
|-(24)-29---------------------|-(29)-27---------------------|
|-----------------------------|-----------------------------|
|-(21)-26---------------------|-(26)-24---------------------|
|-(12)-10---------------------|-(10)--3---------------------|
|-(12)-10---------------------|-(10)--3---------------------|
|-(12)-10---------------------|-(10)--3---------------------|
   +E   H..                      +E   H..


  D5
  Gtr IV
    E   E    E  E  E  E  E  E     E   E    E  E  E  E  E  E
    |   |    |  |  |  |  |  |     |   |    |  |  |  |  |  |
    /   /    /  /  /  /  /  /     /   /    /  /  /  /  /  /

    E   E    E  E  E  E  E  E     E   E    E  E  E  E  E  E
|-----------------------------|-----------------------------|
|-----------------------------|-----------------------------|
|------10---10-10-10-10-10-10-|-------9----9--9--9--9--9--9-|
|-----------------------------|-----------------------------|
|---0---8----8--8--8--8--8--8-|---0---7----7--7--7--7--7--7-|
|---0-------------------------|---0-------------------------|
|
|   E   E    E  E  E  E  E  E     E   E    E  E  E  E  E  E
|-----------------------------|-----------------------------|
|-----------------------------|-----------------------------|
|------14---14-14-14-14-14-14-|------12---12-12-12-12-12-12-|
|-----------------------------|-----------------------------|
|---0--12---12-12-12-12-12-12-|---0--10---10-10-10-10-10-10-|
|---0-------------------------|---0-------------------------|
|
|  +E   H..                      +E   H..
|-(27)-25---------------------|-(25)-24---------------------|
|-----------------------------|-----------------------------|
|-(24)-22---------------------|-(22)-21---------------------|
|--12-------------------------|-(12)------------------------|
|--12-------------------------|-(12)------------------------|
|--12-------------------------|-(12)------------------------|
    W                            +W


  G5                      F5
    E   E   E E E E E E     E   E E E E  E  E E
    |   |   | | | | | |     |   | | | |  |  | |
    /   /   / / / / / /     /   / / / /  /  / /

    E   E   E E E E E E     E   E E E E  E  E E
|-----------------------|-----------------------|
|-----------------------|-----------------------|
|-------7---7-7-7-7-7-7-|-------5-5-5-5s=7--7-7-|
|-----------------------|-----------------------|
|---0---5---5-5-5-5-5-5-|---0---3-3-3-3s=5--5-5-|
|---0-------------------|---0-------------------|
|
|   E   E   E E E E E E     E   E E E E  E  E E
|-----------------------|-----------------------|
|-----------------------|-----------------------|
|-------9---9-9-9-9-9-9-|-------5-5-5-5--5--5-5-|
|-----------------------|-----------------------|
|---0---7---7-7-7-7-7-7-|---0---3-3-3-3--3--3-3-|
|---0-------------------|---0-------------------|
|
|  +E   H..                +E   H        Q.
|-(24)-22---------------|-(22)-20-------22------|
|-----------------------|-----------------------|
|-(21)-19---------------|-(19)-17-------19------|
|-(12)--5---------------|--(5)--3-------(3)-----|
|-(12)--5---------------|--(5)--3-------(3)-----|
|-(12)--5---------------|--(5)--3-------(3)-----|
   +E   H..                +E   H       +Q.


  D5
    E   E    E  E  E  E  E  E     E   E    E  E  E  E  E  E
    |   |    |  |  |  |  |  |     |   |    |  |  |  |  |  |
    /   /    /  /  /  /  /  /     /   /    /  /  /  /  /  /

    E   E    E  E  E  E  E  E     E   E    E  E  E  E  E  E
|-----------------------------|-----------------------------|
|-----------------------------|-----------------------------|
|------10---10-10-10-10-10-10-|-------9----9--9--9--9--9--9-|
|-----------------------------|-----------------------------|
|---0---8----8--8--8--8--8--8-|---0---7----7--7--7--7--7--7-|
|---0-------------------------|---0-------------------------|
|
|   E   E    E  E  E  E  E  E     E   E    E  E  E  E  E  E
|-----------------------------|-----------------------------|
|-----------------------------|-----------------------------|
|------14---14-14-14-14-14-14-|------12---12-12-12-12-12-12-|
|-----------------------------|-----------------------------|
|---0--12---12-12-12-12-12-12-|---0--10---10-10-10-10-10-10-|
|---0-------------------------|---0-------------------------|
|
|  +E   H..                      +E   H..
|-(22)-25---------------------|-(25)-24---------------------|
|-----------------------------|-----------------------------|
|-(19)-22---------------------|-(22)-21---------------------|
|--12-------------------------|--12-------------------------|
|--12-------------------------|--12-------------------------|
|--12-------------------------|--12-------------------------|
    W                             W


  C5                            F5
    E   E    E  E  E  E  E  E     E   E    E  E  E  E  E  E
    |   |    |  |  |  |  |  |     |   |    |  |  |  |  |  |
    /   /    /  /  /  /  /  /     /   /    /  /  /  /  /  /

    E   E    E  E  E  E  E  E     E   E    E  E  E  E  E  E
|-----------------------------|-----------------------------|
|-----------------------------|-----------------------------|
|------14---14-14-14-14-14-14-|------12---12-12-12-12-12-12-|
|-----------------------------|-----------------------------|
|---0--12---12-12-12-12-12-12-|---0--10---10-10-10-10-10-10-|
|---0-------------------------|---0-------------------------|
|
|   E   E    E  E  E  E  E  E     E   E    E  E  E  E  E  E
|-----------------------------|-----------------------------|
|-----------------------------|-----------------------------|
|-------9----9--9--9--9--9--9-|-------5----5--5--5--5--5--5-|
|-----------------------------|-----------------------------|
|---0---7----7--7--7--7--7--7-|---0---3----3--3--3--3--3--3-|
|---0-------------------------|---0-------------------------|
|
|  +E   H..                      +E   H..
|-(24)-29---------------------|-(29)-27---------------------|
|-----------------------------|-----------------------------|
|-(21)-26---------------------|-(26)-24---------------------|
|-(12)-10---------------------|-(10)--3---------------------|
|-(12)-10---------------------|-(10)--3---------------------|
|-(12)-10---------------------|-(10)--3---------------------|
   +E   H..                      +E   H..


  D5
  Gtr V
   E  E  E  E  E  E  E  E    E   E  E  E  E  E  E  E
|-------------20----------|--------------15----------|
|----18-17-18----18-17-18-|-----18-17-18----18-17-18-|
|-19----------------------|-19-----------------------|
|-------------------------|--------------------------|
|-------------------------|--------------------------|
|-------------------------|--------------------------|
|
| Gtrs I, II
|  >
|  W                        +W
|-------------------------|--------------------------|
|-------------------------|--------------------------|
|-------------------------|--------------------------|
|--0----------------------|-(0)----------------------|
|--0----------------------|-(0)----------------------|
|--0----------------------|-(0)----------------------|


   E   E  E  E  E  E  E  E    E   E  E  E  E  E  E  E
|--------------20----------|--------------15----------|
|-----18-17-18----18-17-18-|-----18-17-18----18-17-18-|
|-19-----------------------|-19-----------------------|
|--------------------------|--------------------------|
|--------------------------|--------------------------|
|--------------------------|--------------------------|
|
| +W                         +W
|--------------------------|--------------------------|
|--------------------------|--------------------------|
|--------------------------|--------------------------|
|-(0)----------------------|-(0)----------------------|
|-(0)----------------------|-(0)----------------------|
|-(0)----------------------|-(0)----------------------|


   E   E  E  E  E  E  E  E    E   E  E  E  E  E  E  E
|--------------20----------|--------------15----------|
|-----18-17-18----18-17-18-|-----18-17-18----18-17-18-|
|-19-----------------------|-19-----------------------|
|--------------------------|--------------------------|
|--------------------------|--------------------------|
|--------------------------|--------------------------|
|
| +W                         +W
|--------------------------|--------------------------|
|--------------------------|--------------------------|
|--------------------------|--------------------------|
|-(0)----------------------|-(0)----------------------|
|-(0)----------------------|-(0)----------------------|
|-(0)----------------------|-(0)----------------------|


   E   E  E  E  E  E  E  E    E   E  E  E  E  E  E  E
|--------------20----------|--------------15----------|
|-----18-17-18----18-17-18-|-----18-17-18----18-17-18-|
|-19-----------------------|-19-----------------------|
|--------------------------|--------------------------|
|--------------------------|--------------------------|
|--------------------------|--------------------------|
|
| +W                         +W
|--------------------------|--------------------------|
|--------------------------|--------------------------|
|--------------------------|--------------------------|
|-(0)----------------------|-(0)----------------------|
|-(0)----------------------|-(0)----------------------|
|-(0)----------------------|-(0)----------------------|


  N.C.
   E  E  E  E  E  E  E  E    E  E  E  E  E  E  E  E
|-------------20----------|-------------15----------|
|----18-17-18----18-17-18-|----18-17-18----18-17-18-|
|-19----------------------|-19----------------------|
|-------------------------|-------------------------|
|-------------------------|-------------------------|
|-------------------------|-------------------------|


   E  E  E  E  E  E  E  E    E  E  E  E  E  E  E  E
|-------------20----------|-------------15----------|
|----18-17-18----18-17-18-|----18-17-18----18-17-18-|
|-19----------------------|-19----------------------|
|-------------------------|-------------------------|
|-------------------------|-------------------------|
|-------------------------|-------------------------|


   E  E  E  E  E  E  E  E    E  E  E  E  E  E  E  E
|-------------20----------|-------------15----------|
|----18-17-18----18-17-18-|----18-17-18----18-17-18-|
|-19----------------------|-19----------------------|
|-------------------------|-------------------------|
|-------------------------|-------------------------|
|-------------------------|-------------------------|


   E  E  E  E  E  E  E  E    E  E  E  E  E  E  Q     +W
|-------------20----------|-------------15--------|---------*|
|----18-17-18----18-17-18-|----18-17-18----18-17--|-(17)----*|
|-19----------------------|-19--------------------|---------*|
|-------------------------|-----------------------|---------*|
|-------------------------|-----------------------|---------*|
|-------------------------|-----------------------|---------*|



Duration Legend
---------------
W - whole; H - half; Q - quarter; E - 8th; S - 16th; T - 32nd; X - 64th; a - acciaccatura
+ - note tied to previous; . - note dotted; .. - note double dotted
Uncapitalized letters represent notes that are staccato (1/2 duration)
Irregular groupings are notated above the duration line
Duration letters will always appear directly above the note/fret number it represents the
duration for.  Duration letters with no fret number below them represent rests.  Multi-
bar rests are notated in the form Wxn, where n is the number of bars to rest for.  Low
melody durations appear below the staff

Tablature Legend
----------------
 h   - hammer-on
 p   - pull-off
 b   - bend
 pb  - pre-bend
 r   - bend release (if no number after the r, then release immediately)
 /\  - slide into or out of (from/to "nowhere")
 s   - legato slide
 S   - shift slide
 - natural harmonic
[n]  - artificial harmonic
n(n) - tapped harmonic
 ~   - vibrato
 tr  - trill
 T   - tap
 TP  - trem. picking
 PM  - palm muting
\n/  - tremolo bar dip; n = amount to dip
 \n  - tremolo bar down
 n/  - tremolo bar up
/n\  - tremolo bar inverted dip
 =   - hold bend; also acts as connecting device for hammers/pulls
 <> - volume swell (louder/softer)
 x   - on rhythm slash represents muted slash
 o   - on rhythm slash represents single note slash

Misc Legend
-----------
 |  - bar
||  - double bar
||o - repeat start
o|| - repeat end
*|  - double bar (ending)
 :  - bar (freetime)
 $  - Segno
 &  - Coda
Tempo markers -  = BPM(8/16=s8/s16), where s8 = swing 8ths, s16 = swing 16ths

            
            
Suggest correction
Creating personal tab
Creating personal tab
You can edit any tab online and save it as your Personal.

You can edit, replace or remove any tab part or add personal notes – all changes will be seen only by you.

Personal tabs can be accessed anytime from any device, even offline.
Learn more »
Give kudos to tab author, rate the tab!
1 2 3 4 5
comments
print report bad tab
1 comment total.
0 reply
surgikal 218 Sep 23, 2015 08:29 AM

The tab is spot on. The only critique that I would give is that during the bridge section with the piano and two slow guitars, it would be easier to follow if each bar said 'guitar 1' and 'guitar 2'. With them all stacked on top of each other it makes it difficult to follow without a heading above the bar. Just a suggestion. Other than that it is excellent. Great job

guest
You may want to rate the tab now too:
select rating
Wanna post a correction for this tab? Suggest correction