Oops, an error
Loading. Please wait.

New Moon tab

version 1
version 1

Whole song

Interactive

4,808 views 1 this week
no commentswrite comment
1 2 3 4 5
1 last vote to show rating
add to favorites
×
Save as Personal and add changes to this tab that will be seen only by you. Learn more ›
×
You can save this tab as Personal to edit and correct it or add notes. All changes will be seen only by you. Learn more »
launch autoscroll
font size
0
reset
how to read this tab
guitar tuner
edit
Autoscroll
slow
fast
+/-
esc
set tempo
stop
-------------------------------------------------------------------------------
                           NEW MOON - Swallow The Sun
-------------------------------------------------------------------------------

Tuning: Drop C

Thanks to Blackritual0 for a correction in the verse part!



Intro (with lots of different effects used):
D|---8--7--5---8--7--5-----7--10--7---10--7--7---|
A|-----------------------------------------------|
F|-----------------------------------------------|
C|-----------------------------------------------|
G|-----------------------------------------------|
C|-----------------------------------------------|

D|------8--7---8--7--5---|
A|---6-------------------|
F|-----------------------|
C|-----------------------|
G|-----------------------|
C|-----------------------| (x 2)



Chorus (this is also played right after intro)
       (but then only the first bar and only x 2):
D|----------------------------|
A|----------------------------|
F|----------------------------|
C|---3------2------7------5---|
G|---3------2------7------5---|
C|---3------2------7------5---| (x 3)
  (x 16) (x 16) (x 25) (x 7)

D|--------------|
A|--------------|
F|--------------|
C|---3------2---|
G|---3------2---|
C|---3------2---|
  (x 16) (x 16)



Verse:
(first without vocals, then "Tomorrow will be worse...")
D|----------------------------|---|
A|----------------------------|---|
F|---------7-----10-----9-----|---|
C|---7------------------------|-7-|
G|---7-----5------8-----7-----|-7-|
C|---7------------------------|-7-|
              (x 4)



Verse lead melody (clean sound):
D|----------------------------------------------------------------------------------|
A|---10--10--10--8-----------------12-----------------------------------------------|
F|------------------10--10-----12------10-----10--10--10--10--9----9--9--9--10--9---|
C|----------------------------------------------------------------------------------|
G|----------------------------------------------------------------------------------|
C|----------------------------------------------------------------------------------|

Before the verse continues to chorus, the first bar of intro is played.



Verse 2:
("The despair of morning sun...")
Repeat as in the first verse, but only 2 times, then solo.



Solo 1:
(02:43)
D|----------------------------------------------15~-----13-12--12h13p12--------------------------|
A|-------------------------------------------13-------------------------15--13--13h15/17---------|
F|--------------------------------16h17--p16---------------------------------------------14-14~--|
C|-------9-10-12--10-9-10/19---------------------------------------------------------------------|
G|---12------------------------------------------------------------------------------------------|
C|-----------------------------------------------------------------------------------------------|

(02:53)
D|--------------------------------------------------------------------------|
A|---12b13br12-10----------------------12------10-----12-13-10-13-12-13-----|
F|--------------------------------9--------10---------------------------9---|
C|----------------14---------9-10----9--------------------------------------|
G|-------------------15-14--------------------------------------------------|
C|--------------------------------------------------------------------------|

(03:03)
D|-------------------------------|
A|--------10---------------------|
F|---9-10-----10-9---------------|
C|------------------9--7--9--7---|
G|-------------------------------|
C|-------------------------------|

(03:08)
D|------------------------------------------------------------------12-13-12------------|
A|------------------------------------------13----------------12-13----------13-12------|
F|---------------------------------------14----14----------14----------------------14---|
C|------------14-15-14----------14-15-14----------15-14-15------------------------------|
G|---12-14-15----------15-14-15---------------------------------------------------------|
C|--------------------------------------------------------------------------------------|

(03:11)
D|-------------------|
A|---12b13br12-------|
F|-------------14~---|
C|-------------------|
G|-------------------|
C|-------------------|



Background chords during solo 1:
D|--------------------------|
A|--------------------------|
F|--------------------------|
C|---7-----9-----10-----6---|
G|---7-----9-----10-----6---|
C|---7-----9-----10-----6---| (x 4)



Bridge to solo 2:
("The flames on my skin to wash all bad away...")
D|--------------------------|
A|--------------------------|
F|--------------------------|
C|---0--0-0--0-3---2---/6---|
G|---0--0-0--0-3---2---/6---|
C|---0--0-0--0-3---2---/6---| (x 2)



Solo 2:
(03:25)
D|---------------------------------------|
A|---------------------------------------|
F|---------------------------------------|
C|---------15---14--14---15--------------|
G|---12-14------------------14---15------|
C|----------------------------------14---|

(03:28)
D|---------------------------------------------------------------------12------------------|
A|--------------------------------------------------12--------15----------13----12----12---|
F|-----------------------------------------14----14----12--------14----------14----14------|
C|--------------------------------14----------14----------14--------14---------------------|
G|---------10-12-12-----12-12--12----15-14-------------------------------------------------|
C|---14-15----------15---------------------------------------------------------------------|

(03:33)
D|--------------------12~-------------------------|
A|---~13-----12---15----------12~-----13-12-------|
F|------------------------------------------14~---|
C|------------------------------------------------|
G|------------------------------------------------|
C|------------------------------------------------|



Background chords for solo 2 are the same as for solo 1, but only x 2 and end with G5.
After solo 2, full intro is played again, then chorus and finally, outro.



Outro:
D|---------------------------------------|-----|
A|---------------------------------------|-----|
F|---14---12---9---10---9---7---5---10---|-10\-|
C|---------------------------------------|-----|
G|---12---10---7----8---7---5---3----8---|--8\-|
C|---------------------------------------|-----|
                    (x 2)



************************************

| /   slide up
| \   slide down
| h   hammer-on
| p   pull-off
| ~   vibrato
| b   Bend
| br  Bend release

************************************

            
            
Suggest correction
Creating personal tab
Creating personal tab
You can edit any tab online and save it as your Personal.

You can edit, replace or remove any tab part or add personal notes – all changes will be seen only by you.

Personal tabs can be accessed anytime from any device, even offline.
Learn more »
Give kudos to tab author, rate the tab!
1 2 3 4 5
comments
print report bad tab
guest
You may want to rate the tab now too:
select rating
Wanna post a correction for this tab? Suggest correction