Oops, an error
Loading. Please wait.

Youre Not Real Girl tab

by Swans
3,237 views 9 this week
2 commentsread comments
1 2 3 4 5
x 3
add to favorites
×
Save as Personal and add changes to this tab that will be seen only by you. Learn more ›
×
You can save this tab as Personal to edit and correct it or add notes. All changes will be seen only by you. Learn more »
launch autoscroll
font size
0
reset
how to read this tab
guitar tuner
edit
Autoscroll
slow
fast
+/-
esc
set tempo
stop
Author
-------------------------------------------------------------------------------
                             YOU'RE NOT REAL, GIRL - Swans
-------------------------------------------------------------------------------
Tabbed by: openless

Tuning: standard

The entire song is this with the other two parts thrown in after the Em on occasion.

e|---------------|
B|---------------|
G|---------------|
D|-222222-2------|
A|-333333-2------|
E|--------0------|

I believe this is actually bass but it makes it more interesting on a solo acoustic to 
these too.

e|---------|
B|---0---0-|
G|---------|
D|---------|
A|-2---2---|
E|---------|

e|---------|
B|---0-1-0-|
G|---------|
D|---------|
A|-2-------|
E|---------|


| /  slide up
| \  slide down
| h  hammer-on
| p  pull-off
| ~  vibrato
| +  harmonic
| x  Mute note
===============================================================================

            
            
Suggest correction
Creating personal tab
Creating personal tab
You can edit any tab online and save it as your Personal.

You can edit, replace or remove any tab part or add personal notes – all changes will be seen only by you.

Personal tabs can be accessed anytime from any device, even offline.
Learn more »
Give kudos to tab author, rate the tab!
1 2 3 4 5
comments
print report bad tab
2 comments total.
+1 reply
knotrice 118 Jan 25, 2011 05:48 PM

It's actually played a little differently, according to http://www.youtube.com/watch?v=SYiT6iEszX4

hold note
E|------------------------------|------------------------------|
B|------------------------------|------------------------------|
G|------------------------------|------------------------------|
D|------------------------------|---------9--------9-------9---|
A|-7---7---7---7---7---7----7---|-----7--------7-------7-------|
E|-8---8---8---8---8---8----0---|------------------------------|

But for the most part, you were right.

0 reply
knotrice 118 Jan 25, 2011 05:50 PM

Eugh, Ultimate-Guitar messed up my formatting just there. You hold the last note of the first bar into the second.

guest
You may want to rate the tab now too:
select rating
Wanna post a correction for this tab? Suggest correction