Oops, an error
Loading. Please wait.

Dont You Worry Child tab

version 5
version 5

Interactive

16,733 views 1 this week
1 commentread comment
1 2 3 4 5
x 5
add to favorites
×
Save as Personal and add changes to this tab that will be seen only by you. Learn more ›
×
You can save this tab as Personal to edit and correct it or add notes. All changes will be seen only by you. Learn more »
launch autoscroll
font size
0
reset
how to read this tab
guitar tuner
edit
Autoscroll
slow
fast
+/-
esc
set tempo
stop
Author
Difficulty
Verse

There was a time, I used to look into my father's eyes

E--------------------------------------------------------|
B--3-3-3---3-3---3-3-3-----------------------------------|
G--4-4-4---4-4---4-4-4--2-2--4-4-4---2-2---4-4-4--2-2----|
D--4-4-4---4-4---4-4-4--0-0--5-5-5---0-0---5-5-5--0-0----|
A--2-2-2---0-0---2-2-2--0-0--5-5-5---0-0---5-5-5--0-0----|
E-----------------------2-2--3-3-3---2-2---3-3-3--2-2----|

In a happy home, I was a king I had a gold throne

E--------------------------------------------------------|
B--3-3-3---3-3---3-3-3-----------------------------------|
G--4-4-4---4-4---4-4-4--2-2--4-4-4---2-2---4-4-4--2-2----|
D--4-4-4---4-4---4-4-4--0-0--5-5-5---0-0---5-5-5--0-0----|
A--2-2-2---0-0---2-2-2--0-0--5-5-5---0-0---5-5-5--0-0----|
E-----------------------2-2--3-3-3---2-2---3-3-3--2-2----|

Those days are gone, now the memories are on the wall

E--------------------------------------------------------|
B--2-2-2---2-2---3-3-3-----------------------------------|
G--2-2-2---2-2---4-4-4--2-2--4-4-4---2-2---4-4-4--2-2----|
D--2-2-2---2-2---4-4-4--0-0--5-5-5---0-0---5-5-5--0-0----|
A--0-0-0---0-0---2-2-2--0-0--5-5-5---0-0---5-5-5--0-0----|
E-----------------------2-2--3-3-3---2-2---3-3-3--2-2----|

I hear the sounds from the places where I was born

E--------------------------------------------------------|
B--2-2-2---2-2---3-3-3-----------------------------------|
G--2-2-2---2-2---4-4-4--2-2--4-4-4---2-2---4-4-4--2-2----|
D--2-2-2---2-2---4-4-4--0-0--5-5-5---0-0---5-5-5--0-0----|
A--0-0-0---0-0---2-2-2--0-0--5-5-5---0-0---5-5-5--0-0----|
E-----------------------2-2--3-3-3---2-2---3-3-3--2-2----|

Up on the hill across the blue lake, thats where I had my first heart break

E--------------------------------------------------------|
B--3-3-3---3-3---3-3-3-----------------------------------|
G--4-4-4---4-4---4-4-4--2-2--4-4-4---2-2---4-4-4--2-2----|
D--4-4-4---4-4---4-4-4--0-0--5-5-5---0-0---5-5-5--0-0----|
A--2-2-2---0-0---2-2-2--0-0--5-5-5---0-0---5-5-5--0-0----|
E-----------------------2-2--3-3-3---2-2---3-3-3--2-2----|

I still remember how it all changed, my father said

E--------------------------------------------------------|
B--3-3-3---3-3---3-3-3-----------------------------------|
G--4-4-4---4-4---4-4-4--2-2--4-4-4---2-2---4-4-4--2-2----|
D--4-4-4---4-4---4-4-4--0-0--5-5-5---0-0---5-5-5--0-0----|
A--2-2-2---0-0---2-2-2--0-0--5-5-5---0-0---5-5-5--0-0----|
E-----------------------2-2--3-3-3---2-2---3-3-3--2-2----|

Chorus

Don't you worry, don't you worry child. See heaven's got a plan for you

E--------------------------------------------------------|
B--------------------------------------------------------|
G--------------------------------------------------------|
D--2-2-2---0-2---4-4-4--4--------------------------------|
A--0-0-0---0-0---2-2-2--2-5--5-5-5---5-5---5-5-5--5-5----|
E-------------------------2--3-3-3---2-2---3-3-3--2-2----|
p.m...........................................................................

Don't you worry, don't you worry now. Yeah!

E--------------------------------------------------------|
B--------------------------------------------------------|
G--------------------------------------------------------|
D--2-2-2---0-2---4-4-4--4--------------------------------|
A--0-0-0---0-0---2-2-2--2-5--5-5-5---5-5---5-5-5--5-5----|
E-------------------------2--3-3-3---2-2---3-3-3--2-2----|
p.m............................................................................

Then play 4 times...

E-------------------------------------------------------|
B--2-2-2---0-2---3-3-3--3---------------------------3---|
G--2-2-2---0-2---4-4-4--4-2--4-4-4---4-2---4-4-4--4-4---|
D--2-2-2---0-2---4-4-4--4-0--5-5-5---5-0---5-5-5--5-4---|
A--0-0-0-----0---2-2-2--2-0--5-5-5---5-0---5-5-5--5-2---|
E-------------------------2--3-3-3---3-2---3-3-3--3-----|

            
            
Suggest correction
Creating personal tab
Creating personal tab
You can edit any tab online and save it as your Personal.

You can edit, replace or remove any tab part or add personal notes – all changes will be seen only by you.

Personal tabs can be accessed anytime from any device, even offline.
Learn more »
comments
print report bad tab
1 comment total.
0 reply
AlterCreed95 138 May 22, 2016 05:09 PM

Try this:

Bm D Bm Dmaj7 G Bm G Bm
E|--7-7-7---5-5---7-7-7--5-5--3-3-3---2-2---3-3-3--2-2--|
B|--7-7-7---7-7---7-7-7--7-7--3-3-3---3-3---3-3-3--3-3--|
G|--7-7-7---7-7---7-7-7--6-6--4-4-4---4-4---4-4-4--4-4--|
D|--9-9-9---7-7---9-9-9--7-7--5-5-5---4-4---5-5-5--4-4--|
A|------------------------------------------------------|
E|------------------------------------------------------|

guest
You may want to rate the tab now too:
select rating
Wanna post a correction for this tab? Suggest correction