Oops, an error
Loading. Please wait.

Helicopter Spies chords

169 views 1 this week
no commentswrite comment
1 2 3 4 5
2 more votes to show rating
add to favorites
×
Save as Personal and add changes to this tab that will be seen only by you. Learn more ›
×
You can save this tab as Personal to edit and correct it or add notes. All changes will be seen only by you. Learn more »
launch autoscroll
font size
0
reset
transpose
0
reset
display chords
guitar tuner
edit
Autoscroll
slow
fast
+/-
esc
set tempo
stop
Author
Difficulty
Strumming
There is no strumming pattern for this song yet. and get +5 IQ
Swell Maps 
Helicopter Spies 

First some notes, 
Pretty sure in The verse the E chord is played as so: 

e|----|
B|----|
G|----|
D|-9--|  
A|-7--|
E|-0--|

Second, in the Chorus the E chord is played like this: 

e|----|
B|----|
G|-9--|
D|-9--|
A|-7--|
E|----|

[Intro]
e|--------------------------------------------------------------------------|
B|--------------------------------------------------------------------------|
G|-13-13-13-13-13-13-13-13-14-14-14-14-14-14-14-14-11-11-11-11-11-13-13-13--|
D|--------------------------------------------------------------------------|
A|-11-11-11-11-11-11-11-11-12-12-12-12-12-12-12-12-9-9-9-9-9-9-9-9-11-11-11-|
E|-0-0-0-0-0-0-0-0-0-0-0-0-0-0-0-0-0-0-0-0-0-0-0-0-0-0-0-0-0-0-0-0-0-0-0-0--|

e|-------------------------------------------------------------------------|
B|-------------------------------------------------------------------------|
G|-13-13-13-13-11-13-13-13-13-13-13-13-13-14-14-14-14-14-14-14-14-11-11-11-|
D|-------------------------------------------------------------------------|
A|-11-11-11-11-9-11-11-11-11-11-11-11-11-12-12-12-12-12-12-12-12-9-9-9-9-9-|
E|-0-0-0-0-0-0-0-0-0-0-0-0-0-0-0-0-0-0-0-0-0-0-0-0-0-0-0-0-0-0-0-0-0-0-0-0-|

           E
e|-----------|
B|-----------| 
G|-11-11-11--|
D|---------9-|
A|-9-9-9-9-7-| Keep playing the E chord till the Chorus.
E|-0-0-0-0-0-|

[Verse 1]
E
There aren't that many trees in Arabia
E
Think how many you've seen
E
I'd rather buy a moat than another lawn
E
Back with the guns again

E
Helicopter spies always break new ground
E
Deep hidden in sacks of grain
E
They never have time to dig up the beds
E
Back with the guns again

[Chorus 1]
F#         A                    E  D  B
Helicopter spies, they make me cry
F#         A                    E  D  B
Helicopter spies, they make me cry

[Verse 2]
E
You're always cutting through the undergrowth
E
There's a passage inside the trees
E
If you find your way through the tailor's shop
E
You'll probably be asleep


E
I'd rather take a day off and find you alive
E
Than to push through the coral alone
E
You think you'll find the lagoon again
E
But they often sink away

[Chorus 2]
F#         A                    E  D  B
Helicopter spies, they make me cry
F#         A                    E  D  B
Helicopter spies, they make me cry
F#         A                    E  D  B
Helicopter spies, they make me cry
F#         A                    E  D  B
Helicopter spies, they make me cry

[Verse 2]
E
Helicopter spies always rush around
E
Their jackets often fall off
E
They never have time to put them back on again
E
They're always tough enough

[Chorus 3]
F#         A                    E  D  B
Helicopter spies, they make me cry
F#         A                    E  D  B
Helicopter spies, they make me cry
F#         A                    E  D  B
Helicopter spies, they make me cry

E

[Outro]
e|----------------------------|
B|----------------------------|
G|----------------------------|
D|----------------------------|
A|----11-----12-----9-----11--|
E|-0------0------0-----0------| 

(Rhythm Guitar keeps playing E till the end)

            
            
Suggest correction
Creating personal tab
Creating personal tab
You can edit any tab online and save it as your Personal.

You can edit, replace or remove any tab part or add personal notes – all changes will be seen only by you.

Personal tabs can be accessed anytime from any device, even offline.
Learn more »
Give kudos to tab author, rate the tab!
1 2 3 4 5
comments
print report bad tab
guest
You may want to rate the tab now too:
select rating
Wanna post a correction for this tab? Suggest correction