Oops, an error
Loading. Please wait.

Awakening tab

version 2
version 2

Whole song

Interactive

39,557 views 18 this week
10 commentsread comments
1 2 3 4 5
x 39
add to favorites
×
Save as Personal and add changes to this tab that will be seen only by you. Learn more ›
×
You can save this tab as Personal to edit and correct it or add notes. All changes will be seen only by you. Learn more »
launch autoscroll
font size
0
reset
how to read this tab
guitar tuner
edit
Autoscroll
slow
fast
+/-
esc
set tempo
stop
Author
Difficulty
Intro: guitar 1 (r= 11th fret) (*= palm mute)
e----------------------------------------------------------------->
B----------------------------------------------------------------->
G-----------------------444-----------------------------444------->
D-------999-------222444xxx666464-------999-------222444xxx666464->
A-777999xxxrrr9r9-000000000000000-777999xxxrrr9r9-000000000000000->
E-000000000000000-----------------000000000000000----------------->
  *************** ***************

intro: guitar 1
/e----------------------------------------------------------------->\
|B----------------------------------------------------------------->|
|G-------444-------------444-------------444-------------444------->|
|D-222444---666464-222444---666464-222444---666464-222444---666464->|
|A----------------------------------------------------------------->|
|E----------------------------------------------------------------->|
|                                                                   |
|intro: guitar 2                                                    |
|e-000000000000000-000000000000000-000000000000000-000000000000000->|
|B-000000000000000-000000000000000-000000000000000-000000000000000->|
|G-999999999999999-666666666666666-999999999999999-666666666666666->|
|D-999999999999999-777777777777777-999999999999999-777777777777777->|
|A-777777777777777-777777777777777-777777777777777-777777777777777->|
\E-000000000000000-555555555555555-000000000000000-555555555555555->/

verse 1: guitar 1 (repeat)
e------------------------------------------------------------------>
B------------------------------------------------------------------>
G------------------------------------------------------------------>
D-22222222------------------------22222222------------------------->
A---------222222224444444400000000--------222222224444444400000000->
E------------------------------------------------------------------>
  ****************************************************************
Face down with the LA curbside endings/with the ones and zeros. Downtown
was the perfect place to hide. The first star that I saw last night was a
headlight/of a man-made sky, but/man-made never made our dreams collide,
Collide.

Chorus: guitar 2 (repeat twice)
e-000000000000000-000000000000000-000000000000000-000000000000000->
B-000000000000000-000000000000000-000000000000000-000000000000000->
G-999999999999999-888888888888888-666666666666666-666666666666666->
D-999999999999999-999999999999999-666666666666666-777777777777777->
A-777777777777777-999999999999999-444444444444444-777777777777777->
E-000000000000000-777777777777777-----------------555555555555555->
Here we are now with the falling sky and the rain, We're awakening/Here we
are now with our desperate youth and the pain, We're awakening/Maybe it's
called ambition, you've been talking in your sleep/about a

fill: guitar 2
e-000000000000000----------------->
B-000000000000000----------------->
G-666666666666666----------------->
D-666666666666666----------------->
A-444444444444444----------------->
E--------------------------------->
Dream, we're awakening

fill: guitar 1
/e--------------------------------->\
|B--------------------------------->|
|G-------444-------------444------->|
|D-222444---666464-222444---666464->|
|A--------------------------------->|
|E--------------------------------->|
|                                   |
|fill: guitar 2                     |
|e-000000000000000-000000000000000->|
|B-000000000000000-000000000000000->|
|G-999999999999999-666666666666666->|
|D-999999999999999-777777777777777->|
|A-777777777777777-777777777777777->|
\E-000000000000000-555555555555555->/

verse 1: guitar 2 (repeat)
e------------------------------------------------------------------>
B------------------------------------------------------------------>
G------------------------------------------------------------------>
D-22222222------------------------22222222------------------------->
A---------222222224444444400000000--------222222224444444400000000->
E------------------------------------------------------------------>
  ****************************************************************
Last week found me living for nothing but deadlines, With my dead beat sky
but, this town doesn't look the same tonight These dreams started singing
to me out of nowhere/And in all my life I don't know if I've ever felt so
alive, Alive

---REPEAT CHORUS

fill: guitar 2
e-0000000000000000~-------------0~----------0~------------------->
B-0000000000000000~-------------0~----------0~------------------->
G-6666666666666669~-------------7~----------6~------------------->
D-6666666666666669~-------------7~----------7~------------------->
A-4444444444444447~-------------5~----------7~------------------->
E----------------0~-------------------------5~------------------->
Dream, we're awakening

Bridge: guitar 1 (repeat over and over)
e-2-4-2-0->
B--------->
G--------->
D--------->
A--------->
E--------->
I want to wake up kicking and screaming/I want to wake up kicking and
screaming/I want a heart that I know is beating, It's beating, I'm bleeding/
I want to wake up kicking and screaming/I want to live like I know what I'm
leaving/I want a heart that I know is beating, It's beating… it’s beating…

I'm bleeding

---REPEAT CHORUS

outro: guitar 1
/e-----------------------------------------------------------------0~----->\
|B-----------------------------------------------------------------0~----->|
|G-------444-------------444-------------444-------------444-------1~----->|
|D-222444---666464-222444---666464-222444---666464-222444---666464-2~----->|
|A-----------------------------------------------------------------2~----->|
|E-----------------------------------------------------------------0~----->|
|                                                                          |
|outro: guitar 2                                                           |
|e-000000000000000-000000000000000-000000000000000-000000000000000-0~----->|
|B-000000000000000-000000000000000-000000000000000-000000000000000-0~----->|
|G-999999999999999-666666666666666-999999999999999-666666666666666-1~----->|
|D-999999999999999-777777777777777-999999999999999-777777777777777-2~----->|
|A-777777777777777-777777777777777-777777777777777-777777777777777-2~----->|
\E-000000000000000-555555555555555-000000000000000-555555555555555-0~----->/

            
            
Suggest correction
Creating personal tab
Creating personal tab
You can edit any tab online and save it as your Personal.

You can edit, replace or remove any tab part or add personal notes – all changes will be seen only by you.

Personal tabs can be accessed anytime from any device, even offline.
Learn more »
comments
print report bad tab
10 comments total. Showing first comments.
+2 reply
bakerbordr25 10 Feb 27, 2007 01:37 PM

Wow nobody has commented on this tab yet. i think its good bro. nice job

+2 reply
ckellingc 50 Apr 20, 2007 04:10 PM

II just saw these guys in concert. During the beginning "Yeaaaah" part, he yells it into his guitar and the pickups pick it up.

0 reply
Guitarist_24 51 May 09, 2007 01:55 PM

awesome job. it sound just like the song.

guest
You may want to rate the tab now too:
select rating
Wanna post a correction for this tab? Suggest correction