Oops, an error
Loading. Please wait.

Awakening tab

version 4
version 4

Whole song

Interactive

7,589 views 1 this week
1 commentread comment
1 2 3 4 5
x 7
add to favorites
×
Save as Personal and add changes to this tab that will be seen only by you. Learn more ›
×
You can save this tab as Personal to edit and correct it or add notes. All changes will be seen only by you. Learn more »
launch autoscroll
font size
0
reset
how to read this tab
guitar tuner
edit
Autoscroll
slow
fast
+/-
esc
set tempo
stop
Author
Difficulty
About this tab version
There is a studio version of this out there I believe. My friend heard it on satellite radio. There's also a video on Youtube. https://www.youtube.com/watch?v=nMRtcH-D2OI. Was this info helpful? Yes No
[Intro]
e|--------------------------------------|-------------------------------|
B|--------------------------------------|-------------------------------|
G|--------------------------------------|-------------------------------|
D|--------------------------------------|-2-2-2-4-4-4/9-9-9-6-6-6-4-6-4-| x2
A|-7-7-7-9-9-9/14-14-14-11-11-11-9-14-9-|-0-0-0-0-0-0-0-0-0-0-0-0-0-0-0-|
E|-0-0-0-0-0-0-0--0--0--0--0--0--0-0--0-|-------------------------------|
  (PM)*****************************************************************

                                                                   
[Verse 1]
e|-----------------|-----------------|-----------------|-----------------| 
B|-----------------|-----------------|-----------------|-----------------| 
G|-9-9-9-9-9-9-9-9-|-9-9-9-9-9-9-9-9-|-9-9-9-9-9-9-9-9-|-----------------|
E|-9-9-9-9-9-9-9-9-|-9-9-9-9-9-9-9-9-|-9-9-9-9-9-9-9-9-|-9-9-9-9-9-9-9-9-| x4
A|-7-7-7-7-7-7-7-7-|-x-x-x-x-x-x-x-x-|-x-x-x-x-x-x-x-x-|-7-7-7-7-7-7-7-7-|
E|-0-0-0-0-0-0-0-0-|-7-7-7-7-7-7-7-7-|-9-9-9-9-9-9-9-9-|-5-5-5-5-5-5-5-5-|
  (PM)*******************************************************************
Face down with the LA curbside endings/with the ones and zeros. Downtown
was the perfect place to hide. The first star that I saw last night was a
headlight/of a man-made sky, but/man-made never made our dreams collide,
Collide.

[Chorus]
e|-----------------|-----------------|-----------------|-----------------|
B|-----------------|-----------------|-----------------|-----------------|
G|-9-9-9-9-9-9-9-9-|-8-8-8-8-8-8-8-8-|-9-9-9-9-9-9-9-9-|-6-6-6-6-6-6-6-6-|
D|-9-9-9-9-9-9-9-9-|-9-9-9-9-9-9-9-9-|-9-9-9-9-9-9-9-9-|-7-7-7-7-7-7-7-7-| x3
A|-7-7-7-7-7-7-7-7-|-9-9-9-9-9-9-9-9-|-x-x-x-x-x-x-x-x-|-7-7-7-7-7-7-7-7-|
E|-0-0-0-0-0-0-0-0-|-7-7-7-7-7-7-7-7-|-9-9-9-9-9-9-9-9-|-5-5-5-5-5-5-5-5-|

Here we are now with the falling sky and the rain, We're awakening/Here we
are now with our desperate youth and the pain, We're awakening/Maybe it's
called ambition, you've been talking in your sleep/about a

[Post-Chorus] 
e|-----------------|--------------------------------------|-------------------------------|
B|-----------------|--------------------------------------|-------------------------------|
G|-9-9-9-9-9-9-9-9-|--------------------------------------|-------------------------------|
D|-9-9-9-9-9-9-9-9-|--------------------------------------|-2-2-2-4-4-4/9-9-9-6-6-6-4-6-4-|
A|-x-x-x-x-x-x-x-x-|-7-7-7-9-9-9/14-14-14-11-11-11-9-14-9-|-0-0-0-0-0-0-0-0-0-0-0-0-0-0-0-|
E|-9-9-9-9-9-9-9-9-|-0-0-0-0-0-0-0--0--0--0--0--0--0-0--0-|-------------------------------|
                    (PM)*****************************************************************
dream, we're awakening

[Verse 2]
e|-----------------|-----------------|-----------------|-----------------| 
B|-----------------|-----------------|-----------------|-----------------| 
G|-9-9-9-9-9-9-9-9-|-9-9-9-9-9-9-9-9-|-9-9-9-9-9-9-9-9-|-----------------|
E|-9-9-9-9-9-9-9-9-|-9-9-9-9-9-9-9-9-|-9-9-9-9-9-9-9-9-|-9-9-9-9-9-9-9-9-| x4
A|-7-7-7-7-7-7-7-7-|-x-x-x-x-x-x-x-x-|-x-x-x-x-x-x-x-x-|-7-7-7-7-7-7-7-7-|
E|-0-0-0-0-0-0-0-0-|-7-7-7-7-7-7-7-7-|-9-9-9-9-9-9-9-9-|-5-5-5-5-5-5-5-5-|
  (PM)******************************************************************
Last week found me living for nothing but deadlines, With my dead beat sky
but, this town doesn't look the same tonight These dreams started singing
to me out of nowhere/And in all my life I don't know if I've ever felt so
alive, Alive

[Chorus]
e|-----------------|-----------------|-----------------|-----------------|
B|-----------------|-----------------|-----------------|-----------------|
G|-9-9-9-9-9-9-9-9-|-8-8-8-8-8-8-8-8-|-9-9-9-9-9-9-9-9-|-6-6-6-6-6-6-6-6-|
D|-9-9-9-9-9-9-9-9-|-9-9-9-9-9-9-9-9-|-9-9-9-9-9-9-9-9-|-7-7-7-7-7-7-7-7-| x3
A|-7-7-7-7-7-7-7-7-|-9-9-9-9-9-9-9-9-|-x-x-x-x-x-x-x-x-|-7-7-7-7-7-7-7-7-|
E|-0-0-0-0-0-0-0-0-|-7-7-7-7-7-7-7-7-|-9-9-9-9-9-9-9-9-|-5-5-5-5-5-5-5-5-|

Here we are now with the falling sky and the rain, We're awakening/Here we
are now with our desperate youth and the pain, We're awakening/Maybe it's
called ambition, you've been talking in your sleep/about a

[Post-Chorus]
e|-----------------|------------------|------------------|--------------------------|
B|-----------------|------------------|------------------|--------------------------|
G|-9-9-9-9-9-9-9-9-|-9-9-9--9-9-9-9-9-|-7-7-7--7-7-7-7-7-|-6-6-6--6-6-6-6-6-6-6-6-6-|
D|-9-9-9-9-9-9-9-9-|-9-9-9--9-9-9-9-9-|-7-7-7--7-7-7-7-7-|-7-7-7--7-7-7-7-7-7-7-7-7-|
A|-x-x-x-x-x-x-x-x-|-7-7-7--7-7-7-7-7-|-5-5-5--5-5-5-5-5-|-7-7-7--7-7-7-7-7-7-7-7-7-|
E|-9-9-9-9-9-9-9-9-|-0-0-0--0-0-0-0-0-|------------------|-5-5-5--5-5-5-5-5-5-5-5-5-|

dream, we're awakening

[Bridge]
e|-----------------|-----------------|-----------------|-----------------|
B|-----------------|-----------------|-----------------|-----------------|
G|-----------------|-----------------|-----------------|-----------------|
D|-9-9-9-9-9-9-9-9-|-9-9-9-9-9-9-9-9-|-----------------|-----------------|
A|-x-x-x-x-x-x-x-x-|-x-x-x-x-x-x-x-x-|-7-7-7-7-7-7-7-7-|-7-7-7-7-7-7-7-7-|
E|-9-9-9-9-9-9-9-9-|-9-9-9-9-9-9-9-9-|-5-5-5-5-5-5-5-5-|-5-5-5-5-5-5-5-5-|
  (PM)******************************************************************
I want to wake up kicking and screaming/I want to wake up kicking and screaming

e|-----------------|-----------------|-----------------|-------------------------|
B|-----------------|-----------------|-----------------|-------------------------|
G|-----------------|-----------------|-----------------|-------------------------|
D|-----------------|-----------------|-----------------|-------------------------|
A|-9-9-9-9-9-9-9-9-|-9-9-9-9-9-9-9-9-|-7-7-7-7-7-7-7-7-|-11-11-11-11-11-11-11-11-|
E|-7-7-7-7-7-7-7-7-|-7-7-7-7-7-7-7-7-|-5-5-5-5-5-5-5-5-|-8--8--8--8--8--8--8--8--|
  (PM)*************************************************************************
I want to live like I know what I'm leaving /I'm bleeding, I'm bleeding

e|-------------------------|-------------------------|-----------------|-----------------|
B|-------------------------|-------------------------|-----------------|-----------------|
G|-------------------------|-------------------------|-----------------|-----------------|
D|-------------------------|-------------------------|-----------------|-----------------|
A|-11-11-11-11-11-11-11-11-|-11-11-11-11-11-11-11-11-|-7-7-7-7-7-7-7-7-|-7-7-7-7-7-7-7-7-|
E|-9--9--9--9--9--9--9--9--|-9--9--9--9--9--9--9--9--|-5-5-5-5-5-5-5-5-|-5-5-5-5-5-5-5-5-|
  (PM)**********************************************************************************
I want to wake up kicking and screaming/I want a heart that I know is beating

e|-----------------|-----------------|-----------------|-----------------|-----------------|
B|-----------------|-----------------|-----------------|-----------------|-----------------|
G|-----------------|-----------------|-----------------|-----------------|-----------------|
D|-----------------|-----------------|-----------------|-----------------|-----------------|
A|-9-9-9-9-9-9-9-9-|-9-9-9-9-9-9-9-9-|-7-7-7-7-7-7-7-7-|-7-7-7-7-7-7-7-7-|-7-7-7-7-7-7-7-7-|
E|-7-7-7-7-7-7-7-7-|-7-7-7-7-7-7-7-7-|-5-5-5-5-5-5-5-5-|-5-5-5-5-5-5-5-5-|-5-5-5-5-5-5-5-5-|
  (PM)*************************************************************************
I want a heart that I know is beating/It's beating… it’s beating… it’s beating…

e|---------------------|
B|---------------------|
G|---------------------|
D|-x-x-x-x-x-x-x-x-x-x-|
A|-x-x-x-x-x-x-x-x-x-x-|
E|-x-x-x-x-x-x-x-x-x-x-| 

I'm bleeding

[Chorus]
e|-----------------|-----------------|-----------------|-----------------|
B|-----------------|-----------------|-----------------|-----------------|
G|-9-9-9-9-9-9-9-9-|-8-8-8-8-8-8-8-8-|-9-9-9-9-9-9-9-9-|-6-6-6-6-6-6-6-6-|
D|-9-9-9-9-9-9-9-9-|-9-9-9-9-9-9-9-9-|-9-9-9-9-9-9-9-9-|-7-7-7-7-7-7-7-7-| x3
A|-7-7-7-7-7-7-7-7-|-9-9-9-9-9-9-9-9-|-x-x-x-x-x-x-x-x-|-7-7-7-7-7-7-7-7-|
E|-0-0-0-0-0-0-0-0-|-7-7-7-7-7-7-7-7-|-9-9-9-9-9-9-9-9-|-5-5-5-5-5-5-5-5-|

Here we are now with the falling sky and the rain, We're awakening/Here we
are now with our desperate youth and the pain, We're awakening/Maybe it's
called ambition, you've been talking in your sleep/about a

[Post-Chorus]
e|-------------------------|-----------------|-------------------------|-----------------|
B|-------------------------|-----------------|-------------------------|-----------------|
G|-------------------------|-----------------|-------------------------|-----------------|
D|-11-11-11-11-11-11-11-11-|-7-7-7-7-7-7-7-7-|-11-11-11-11-11-11-11-11-|-7-7-7-7-7-7-7-7-|
A|-11-11-11-11-11-11-11-11-|-7-7-7-7-7-7-7-7-|-11-11-11-11-11-11-11-11-|-7-7-7-7-7-7-7-7-|
E|-9--9--9--9--9--9--9--9--|-5-5-5-5-5-5-5-5-|-9--9--9--9--9--9--9--9--|-5-5-5-5-5-5-5-5-| 
  (PM)**********************************************************************************
dream, we're awakening… dream, we’re awakening.

[Outro] 
e|--------------------------------------|-------------------------------|
B|--------------------------------------|-------------------------------|
G|--------------------------------------|-------------------------------|
D|--------------------------------------|-2-2-2-4-4-4/9-9-9-6-6-6-4-6-4-|
A|-7-7-7-9-9-9/14-14-14-11-11-11-9-14-9-|-0-0-0-0-0-0-0-0-0-0-0-0-0-0-0-|
E|-0-0-0-0-0-0-0--0--0--0--0--0--0-0--0-|-------------------------------|
  (PM)***************************************************************

e|--------------------------------------|--------------------------------0-----------|
B|--------------------------------------|----------------------------------0---------|
G|--------------------------------------|------------------------------------1-------|
D|--------------------------------------|-2-2-2-4-4-4/9-9-9-6-6-6-4-6-4--------2-----| 
A|-7-7-7-9-9-9/14-14-14-11-11-11-9-14-9-|-0-0-0-0-0-0-0-0-0-0-0-0-0-0-0----------2---|
E|-0-0-0-0-0-0-0--0--0--0--0--0--0-0--0-|------------------------------------------0-|
  (PM)**************************************************************

            
            
Suggest correction
Creating personal tab
Creating personal tab
You can edit any tab online and save it as your Personal.

You can edit, replace or remove any tab part or add personal notes – all changes will be seen only by you.

Personal tabs can be accessed anytime from any device, even offline.
Learn more »
comments
print report bad tab
1 comment total.
0 reply
estevan711 99 Oct 23, 2008 08:24 PM

Perfect! Very good!

guest
You may want to rate the tab now too:
select rating
Wanna post a correction for this tab? Suggest correction