Oops, an error
Loading. Please wait.

Daisy tab

version 3
version 3

Whole song

Interactive

157 views 1 this week
no commentswrite comment
1 2 3 4 5
2 more votes to show rating
add to favorites
×
Save as Personal and add changes to this tab that will be seen only by you. Learn more ›
×
You can save this tab as Personal to edit and correct it or add notes. All changes will be seen only by you. Learn more »
launch autoscroll
font size
0
reset
how to read this tab
guitar tuner
edit
Autoscroll
slow
fast
+/-
esc
set tempo
stop
Author
Tuning: 
Db Ab Db F Ab Eb (album)
D  A  D  F# A E   (live)
Switchfoot doesn't play this song live very often because the tuning is so annoying 
to get in and out of. I tabbed this mostly from aftershow videos on youtube, like 
this one: https://www.youtube.com/watch?v=9yw-G7uqyxY where you can hear him tune 
his guitar up. There may be the odd discrepancy as I couldn't find a video with a 
really clear view of his fingers, but I think this is more or less accurate.

[Intro]
e|--0---0-0-0-----0--0---0----0---0-0-0-----0--0---0----0--------------------------|
A|--0---0-0-0-----0--0---0----0---0-0-0-----0--0---0----0--------------------------|
F#|-0---0-0-10/12-12-12--10---0---0-0-10/12-12-12--10---0--------------------------|
D|--0---0-0-0-----0--0---0----0---0-0-0-----0--0---0----0--------------------------|
A|--0---0-0-7/9---9--9---7----0---0-0-7/9---9--9---7----0--------------------------|
D|--0---0-0-0-----0--0---0----0---0-0-0-----0--0---0----0--------------------------|

[verse 1]
e|---------------------------------------------------------------------------------|
A|---0-------------------------0---------------------0-----------------------------|
F#|--0-------------------------0---------------------8-----------------------------|
D|---0-------------------------6---------------------0-----------------------------|
A|---0-------------------------0---------------------x-----------------------------|
D|---0-------------------------0---------------------9-----------------------------|
    Daisy, give yourself away   Look up at the rain   The beautiful display

e|---------------------------------------------------------------------------------|
A|---------------------0----------------------0------------------------------------|
F#|--------------------5----------------------8------------------------------------|
D|---------------------0----------------------0------------------------------------|
A|---------------------x----------------------x------------------------------------|
D|---------------------5----------------------8------------------------------------|
    Of power and surrender   Giving us today   When she gives herself away

e|--0---0-0-0-----0--0---0----0---0-0-0-----0--0---0----0--------------------------|
A|--0---0-0-0-----0--0---0----0---0-0-0-----0--0---0----0--------------------------|
F#|-0---0-0-10/12-12-12--10---0---0-0-10/12-12-12--10---0--------------------------|
D|--0---0-0-0-----0--0---0----0---0-0-0-----0--0---0----0--------------------------|
A|--0---0-0-7/9---9--9---7----0---0-0-7/9---9--9---7----0--------------------------|
D|--0---0-0-0-----0--0---0----0---0-0-0-----0--0---0----0--------------------------|

e|---------------------------------------------------------------------------------|
A|---0---------------------0---------------------0---------------------------------|
F#|--0---------------------0---------------------8---------------------------------|
D|---0---------------------6---------------------0---------------------------------|
A|---0---------------------0---------------------x---------------------------------|
D|---0---------------------0---------------------9---------------------------------|
    Rain, another rainy day   Comes up from the ocean   Give herself away

e|---------------------------------------------------------------------------------|
A|---------------------0-----------------------0-----------------------------------|
F#|--------------------5-----------------------8-----------------------------------|
D|---------------------0-----------------------0-----------------------------------|
A|---------------------x-----------------------x-----------------------------------|
D|---------------------5-----------------------8-----------------------------------|
    She comes down easy   On rich and dead the same   When she gives herself away

e|--0---0-0-0-----0--0---0----0---0-0-0--------------------------------------------|
A|--0---0-0-0-----0--0---0----0---0-0-0--------------------------------------------|
F#|-0---0-0-10/12-12-12--10---0---0-0-0--------------------------------------------|
D|--0---0-0-0-----0--0---0----0---0-0-0--------------------------------------------|
A|--0---0-0-7/9---9--9---7----0---0-0-0--------------------------------------------|
D|--0---0-0-0-----0--0---0----0---0-0-0--------------------------------------------|

[Chorus]
e|---------------------------------------------------------------------------------|
A|-----------0-----------------0--------------0------------------------------------|
F#|----------6-----------------5--------------4------------------------------------|
D|-----------0-----------------0--------------0------------------------------------|
A|-----------0-----------------x--------------x------------------------------------|
D|-----------0-----------------5--------------5------------------------------------|
    Let it go, Daisy let it go   Open up your fists

e|---------------------------------------------------------------------------------|
A|--------------------0---------------------0--------------------------------------|
F#|-------------------3---------------------2--------------------------------------|
D|--------------------0---------------------0--------------------------------------|
A|--------------------x---------------------x--------------------------------------|
D|--------------------3---------------------2--------------------------------------|
    This fallen world   Doesn't hold your interest

e|---------------------------------0-----------------------------------------------|
A|------------------------------0--------------------------------------------------|
F#|--------------------------1-----------------------------------------------------|
D|------------------------2--------------------------------------------------------|
A|--------------------0------------------------------------------------------------|
D|---------------------------------------------------------------------------------|
    Doesn't hold your soul        Daisy let it go

e|--0---0-0-0-----0--0---0----0---0-0-0-----0--0---0----0--------------------------|
A|--0---0-0-0-----0--0---0----0---0-0-0-----0--0---0----0--------------------------|
F#|-0---0-0-10/12-12-12--10---0---0-0-10/12-12-12--10---0--------------------------|
D|--0---0-0-0-----0--0---0----0---0-0-0-----0--0---0----0--------------------------|
A|--0---0-0-7/9---9--9---7----0---0-0-7/9---9--9---7----0--------------------------|
D|--0---0-0-0-----0--0---0----0---0-0-0-----0--0---0----0--------------------------|

[Verse 2](repeat verse 1 chords)
Pain, give yourself a name
Call yourself contrition,
Avarice or blame
Giving isn't easy
And neither is the rain
When she gives herself away

Daisy, why another day
Why another sunrise
Who will take the blame
For all redemptive motion
And every rainy day
When He gives Himself away

[Chorus]
e|--------------------------------------------------------------------------------|
A|-----------0-----------------0--------------0-----------------------------------|
F#|----------6-----------------5--------------4-----------------------------------|
D|-----------0-----------------0--------------0-----------------------------------|
A|-----------0-----------------x--------------x-----------------------------------|
D|-----------0-----------------5--------------5-----------------------------------|
    Let it go, Daisy let it go   Open up your fists

e|--------------------------------------------------------------------------------|
A|--------------------0---------------------0-------------------------------------|
F#|-------------------3---------------------2-------------------------------------|
D|--------------------0---------------------0-------------------------------------|
A|--------------------x---------------------x-------------------------------------|
D|--------------------3---------------------2-------------------------------------|
    This fallen world   Doesn't hold your interest

e|-------------------------------------------0---0-0-0-----0--0---0---------------|
A|---------------------0---------------------0---0-0-0-----0--0---0----0---0-0-0--|
F#|--------------------1---------------------0---0-0-10/12-12-12--10---0---0-0-0--|
D|---------------------2---------------------0---0-0-0-----0--0---0----0---0-0-0--|
A|---------------------0---------------------0---0-0-7/9---9--9---7----0---0-0-0--|
D|---------------------x---------------------0---0-0-0-----0--0---0----0---0-0-0--|
    Doesn't hold your soul    Daisy let it go

e|--------------------------------------------------------------------------------|
A|-----------0-----------------0-----------------0----------------0---------------|
F#|----------6-----------------5-----------------4----------------3---------------|
D|-----------0-----------------0-----------------0----------------0---------------|
A|-----------0-----------------x-----------------x----------------x---------------|
D|-----------0-----------------5-----------------5----------------3---------------|
    Let it go...          Ohhhh...          Ohhhh...            Ohhh...

e|------------------------------0-------------------0---0-0-0-----0--0---0----0---|
A|-------------0----------------0-------------------0---0-0-0-----0--0---0----0---|
F#|------------2----------------1-------------------0---0-0-10/12-12-12--10---0---|
D|-------------0----------------2-------------------0---0-0-0-----0--0---0----0---|
A|-------------x----------------0-------------------0---0-0-7/9---9--9---7----0---|
D|-------------2----------------x-------------------0---0-0-0-----0--0---0----0---|
              Ooooohhh...

e|--0---0-0-0-----0--0---0----0---0-0-0-----0--0---0----0-------------------------|
A|--0---0-0-0-----0--0---0----0---0-0-0-----0--0---0----0-------------------------|
F#|-0---0-0-10/12-12-12--10---0---0-0-10/12-12-12--10---0-------------------------|
D|--0---0-0-0-----0--0---0----0---0-0-0-----0--0---0----0-------------------------|
A|--0---0-0-7/9---9--9---7----0---0-0-7/9---9--9---7----0-------------------------|
D|--0---0-0-0-----0--0---0----0---0-0-0-----0--0---0----0-------------------------|

[Outro]
e|--------------------------------------------------------------------------------|
A|--------------------------------------------------------------------------------|
F#|-------------------------------------------------------------------------------| 
D|--------0----0-0-0----0-0-7-6-5-----------0----0-0-0----0-0-7-6-5---------------| x3
A|--------12/0-0-0-12/0-0-0-7-6-5-----------12/0-0-0-12/0-0-0-7-6-5---------------|
D|--------12/0-0-0-12/0-0-0-7-6-5-----------12/0-0-0-12/0-0-0-7-6-5---------------|
   Let it go                         Let it go

e|---------x----------------|
A|---------0----------------|
F#|--------0----------------|
D|---------0----------------|
A|---------0----------------|
D|---------0----------------|
    Let it go



************************************

| /  Slide up
| x  Dead note
| #  

************************************

            
            
Suggest correction
Creating personal tab
Creating personal tab
You can edit any tab online and save it as your Personal.

You can edit, replace or remove any tab part or add personal notes – all changes will be seen only by you.

Personal tabs can be accessed anytime from any device, even offline.
Learn more »
Give kudos to tab author, rate the tab!
1 2 3 4 5
comments
print report bad tab
guest
You may want to rate the tab now too:
select rating
Wanna post a correction for this tab? Suggest correction