Oops, an error
Loading. Please wait.

Enough To Let Me Go intro tab

version 1
version 1

Intro

Whole song

Interactive

18,543 views 15 this week
4 commentsread comments
1 2 3 4 5
x 17
add to favorites
×
Save as Personal and add changes to this tab that will be seen only by you. Learn more ›
×
You can save this tab as Personal to edit and correct it or add notes. All changes will be seen only by you. Learn more »
launch autoscroll
font size
0
reset
how to read this tab
guitar tuner
edit
Autoscroll
slow
fast
+/-
esc
set tempo
stop
Author
Difficulty
Enough To Let Me Go
Switchfoot
Hello Hurricane out Nov. 10th 2009

Intro:
Guitar 1
e|---------------------------------------------|
B|---------------------------------------------|
G|--------6-----------------6------------------|
D|-----------8-6--------------8-6---------8--6-|
A|---6-9---------9------6-9---------9----------|
E|-----------------7------------------7--------| x2

Guitar 2
(Palm Muted)
e|---------------------------------------------|
B|---------------------------------------------|
G|---------------------------------------------|
D|---------------------------------------------|
A|---------------------------------------------|
E|222222222222222222222222222222222222222222222| x2

            
            
Suggest correction
Creating personal tab
Creating personal tab
You can edit any tab online and save it as your Personal.

You can edit, replace or remove any tab part or add personal notes – all changes will be seen only by you.

Personal tabs can be accessed anytime from any device, even offline.
Learn more »
comments
print report bad tab
4 comments total. Showing first comments.
+8 reply
D.I.R.T. 84 Nov 10, 2009 02:02 PM

try this....

e|-----------------------------------------------|
B|-----------------------------------------------|
G|--------6------------------6-------------------|
D|----------8----6-------------8----6-------8--6-|
A|---6-9-----------9-----6-9----------9----------|
E|-------------------7------------------7--------| x2

Same notes jsut in an easier to use scale, thanks for putting this up here =D

+2 reply
Soccergeek4jc 221 Jul 27, 2010 09:50 AM

also, isn't guitar 2 playing an octave higher than what you have?

d-4444444444444444 etc
a-----------------
e-----------------

0 reply
jesusfreak1995 10 Aug 14, 2010 08:48 PM

@D.I.R.T thank you sooo much for that version. i couldnt play his,but i got yours fairly easily

guest
You may want to rate the tab now too:
select rating
Wanna post a correction for this tab? Suggest correction