Oops, an error
Loading. Please wait.

Fatal Wound tab

version 3
version 3

Whole song

5,368 views 1 this week
5 commentsread comments
1 2 3 4 5
x 6
add to favorites
×
Save as Personal and add changes to this tab that will be seen only by you. Learn more ›
×
You can save this tab as Personal to edit and correct it or add notes. All changes will be seen only by you. Learn more »
launch autoscroll
font size
0
reset
how to read this tab
guitar tuner
edit
Autoscroll
slow
fast
+/-
esc
set tempo
stop
intro/verse 1: (acoustic)
e------------------------------------------------------------------------->
B----------3-3-33-3-1-1-11-1-3-3-33-3----------3-3-33-3-1-1-11-1-3-3-33-3->
G----------3-3-33-3-2-2-22-2-3-3-34-4----------3-3-33-3-2-2-22-2-3-3-34-4->
D-3-3-33-3-0-0-00-0-0-0-00-0-0-0-00-0-3-3-33-3-0-0-00-0-0-0-00-0-0-0-00-0->
A-5-5-55-5----------0-0-00-0----------5-5-55-5----------0-0-00-0---------->
D--------0-----------------0-----------------0-----------------0---------->
                                      I am the crisis I am the bitter end
I’m gonna gun this down

verse 1:
e------------------------------------------>
B----------3-3-33-3-1-1-11-1-3-3-3-3-3-3-3->
G----------3-3-33-3-2-2-22-2-3-3-3-3-3-3-3->
D-3-3-33-3-0-0-00-0-0-0-00-0-0-0-0-0-0-0-0->
A-5-5-55-5----------0-0-00-0--------------->
D--------0-----------------0--------------->
I am divided I am the razor edge there is no easy now

chorus:
e------------------------------------------------------------------------>
B-3-3-333-3-----------3-3-333-3-----------3-3-333-3-----------3-3-35-5-5->
G-2-2-222-2-4-4-444-4-2-2-222-2-4-4-444-4-2-2-222-2-1-1-111-1-3-3-35-5-5->
D-0-0-000-0-5-5-555-5-0-0-000-0-5-5-555-5-0-0-000-0-2-2-222-2-3-3-35-5-5->
A-0-0-000-0-5-5-555-5-0-0-000-0-5-5-555-5-0-0-000-0-2-2-222-2-1-1-13-3-3->
D-0-0-000-0-5-5-555-5-0-0-000-0-5-5-555-5-0-0-000-0-2-2-222-2------------>
Son of sorrow, staring down forever with an aching view Disenchanted let’s
go down together with the fatal wound

fill:
e----------------------------------------->
B-3-3-333-3-----------3-3-333-3----------->
G-2-2-222-2-4-4-444-4-2-2-222-2-4-4-444-4->
D-0-0-000-0-5-5-555-5-0-0-000-0-5-5-555-5->
A-0-0-000-0-5-5-555-5-0-0-000-0-5-5-555-5->
D-0-0-000-0-5-5-555-5-0-0-000-0-5-5-555-5->

verse 2:
e-------------------------------------------------------------------------->
B-1-1-11-1-3-3-33-3-1-1-11-1-3-3-33-3-1-1-11-1-3-3-33-3-1-1-11-1-3-3-33-3-->
G-2-2-22-2-3-3-33-3-2-2-22-2-3-3-34-4-2-2-22-2-3-3-33-3-2-2-22-2-3-3-34-4-->
D-0-0-00-0-0-0-00-0-0-0-00-0-0-0-00-0-0-0-00-0-0-0-00-0-0-0-00-0-0-0-00-0-->
A-0-0-00-0----------0-0-00-0----------0-0-00-0----------0-0-00-0----------->
D--------0-----------------0-----------------0-----------------0----------->
this is the real thing the rubber bullet’s not this is the final bow my
breath avoids me my chest is in my head my stomach’s upside down, down

chorus 2:
e------------------------------------------------------------------------>
B-3-3-333-3-----------3-3-333-3-----------3-3-333-3---------------------->
G-2-2-222-2-4-4-444-4-2-2-222-2-4-4-444-4-2-2-222-2-1-1-111-1-3-3-35-5-5->
D-0-0-000-0-5-5-555-5-0-0-000-0-5-5-555-5-0-0-000-0-2-2-222-2-3-3-35-5-5->
A-0-0-000-0-5-5-555-5-0-0-000-0-5-5-555-5-0-0-000-0-2-2-222-2-3-3-35-5-5->
D-0-0-000-0-5-5-555-5-0-0-000-0-5-5-555-5-0-0-000-0-2-2-222-2-1-1-13-3-3->
Son of sorrow, staring down forever with an aching view yeah, Disenchanted
let’s go down together with the fatal wound

chorus 2:
e--------------------------------------------->
B-3-3-333-3-----------3-3-333-3-----------3~~->
G-2-2-222-2-3-3-355-5-2-2-222-2-3-3-355-5-2~~->
D-0-0-000-0-3-3-355-5-0-0-000-0-3-3-355-5-0~~->
A-0-0-000-0-3-3-355-5-0-0-000-0-3-3-355-5-0~~->
D-0-0-000-0-1-1-133-3-0-0-000-0-1-1-133-3-0~~->
            with the fatal wound with the fatal wound

            
            
Suggest correction
Creating personal tab
Creating personal tab
You can edit any tab online and save it as your Personal.

You can edit, replace or remove any tab part or add personal notes – all changes will be seen only by you.

Personal tabs can be accessed anytime from any device, even offline.
Learn more »
comments
print report bad tab
5 comments total. Showing first comments.
0 reply
Mikesfoot 16 Sep 15, 2007 08:20 PM

dude this is the best tab ever. good job! like it a lot.

0 reply
looklukelook 85 May 19, 2008 04:32 AM

yeh i like this one better thatn the others. Good Job =]

0 reply
RX9 51 Aug 19, 2013 07:59 AM

This is accurate except I think there's from the second chord in the chorus to the 7th fret before switching.

guest
You may want to rate the tab now too:
select rating
Wanna post a correction for this tab? Suggest correction