Oops, an error
Loading. Please wait.

Home bass

967 views 1 this week
no commentswrite comment
1 2 3 4 5
x 3
add to favorites
×
Save as Personal and add changes to this tab that will be seen only by you. Learn more ›
×
You can save this tab as Personal to edit and correct it or add notes. All changes will be seen only by you. Learn more »
launch autoscroll
font size
0
reset
guitar tuner
edit
Autoscroll
slow
fast
+/-
esc
set tempo
stop
Difficulty
intermediate
Band: Switchfoot
Song: Home
Album: Legend of Chin
Tabbed: ricks.josh@gmail.com

I’ve seen a few versions of this song for bass and some came close, but this one is a 
bit closer to the CD.

Intro
no bass


Main/Verse
G|---------------------------------|
D|-----4h5-4-----------------------| x6
A|------------5---2-3------2-5-5---|
E|-3-----------------------------5-|


After 1st Verse "All that's in my head..."
G|---------------------|
D|----4---2------------|
A|------------2--3-----|
E|-0-------------------|


Back to Main Riff x5


Pre-Chorus
G|-----------------------|
D|-----------------------|
A|-3---------3-----2-----|
E|------3----------------|


Chorus
G|--------------------------------------------|
D|--------------------------------------------|
A|-0--2--------0--2--------0--2--------5------|
E|-------0-----------0-----------0------------|

G|--------------------------------------------|
D|--------------------------------------------|
A|-0--2--------0--2--------0--2--------3------|
E|-------0-----------0-----------0------------|


Back to Main Riff x2


Beginning of Second Verse (Cello Part)
G|-------------------------|
D|-5-----------------------| x2
A|-------------3-----5-----|
E|-------------------------|

Back to Main Riff x2

Pre-Chorus

Chorus


Breakdown (Right after second Chorus)
G|-----------------------------------------------------------------|
D|-----------------------------------------------------------------|
A|---------2---5---3---3---5---5---------------2---3---3---5---5---|
E|-3---5---------------------------0---2---3-----------------------|

G|-----2-0-----2h4p2-0-----4-0-----7---|
D|---0-------0-----------2-------7---0-| x2
A|---------2-----------3-------5-------|
E|-3-----------------------------------|

Back to "All that's in my head..." Riff x3

Main Riff x2


Ending
G|---------------------------------|
D|---------------------------------|
A|-0-----0-----0---------3-2-0-----|
E|-----------------------------3---|

Listen to the song for the rhythm. Hope this helps!

            
            
Suggest correction
Creating personal tab
Creating personal tab
You can edit any tab online and save it as your Personal.

You can edit, replace or remove any tab part or add personal notes – all changes will be seen only by you.

Personal tabs can be accessed anytime from any device, even offline.
Learn more »
Give kudos to tab author, rate the tab!
1 2 3 4 5
comments
print report bad tab
guest
Wanna post a correction for this tab? Suggest correction