Oops, an error
Loading. Please wait.

Learning To Breathe bass

version 1
version 1

Whole song

Interactive

3,754 views 1 this week
1 commentread comment
1 2 3 4 5
x 6
add to favorites
×
Save as Personal and add changes to this tab that will be seen only by you. Learn more ›
×
You can save this tab as Personal to edit and correct it or add notes. All changes will be seen only by you. Learn more »
launch autoscroll
font size
0
reset
guitar tuner
edit
Autoscroll
slow
fast
+/-
esc
set tempo
stop
Author
Learning to Breathe
Switchfoot
Tabbed by Adam Harger adam_kh@selectpath.com

Standard tuning
G|
D|
A|
E|

INTRO
I'll leave the intro up to you. Here are the chords for convenience:
G  C  G  C  Dsus  D
Then you can go into verse with a slide down from D and then:
 |----------------|
 |00000000--------|
 |--------33333333|
 |----------------|


VERSE 1 (2x)
 |----------------|
 |----------------|
 |0------02-3-----|
 |----------------|

 |----------------|
 |------00----54-0|
 |----22----02----|
 |3333-----3------|

BRIDGE
 |------------------------|
 |----------------00000000|
 |3-------2---------------|
 |------------------------|

CHORUS
 |----------------|
.|----------------|
.|33--3322--------|
 |---3----00--2233|

 |----------------|
 |------0022--4455|.
 |33--33----------|.
 |---3------------| (2x)

 |----------------|
 |00000000--------|
 |--------33333333|
 |----------------|

VERSE 2 (2x)
 |----------------|
 |--55--5---55--5-|
 |0---00-33---33--|
 |----------------|

 |----------------|
 |------00----54-0|
 |----22----02----|
 |3333-----3------|

Now go straight to CHORUS

After 2nd CHORUS:
MIDSECTION
 |------------7---|
.|--------5-59-9--|
.|/7--9----7------|
 |----------------|

 |----------------|
 |------00----54-0|.
 |----22----02----|.
 |3333-----3------| (2x)

Then back to BRIDGE (4X) then to CHORUS

That's just about all you need. All tabbed by ear, with some help of
knowing the chords. Here's the entire song order:

INTRO
VERSE 1 (2x)
BRIDGE
CHORUS
VERSE 2 (2x)
CHORUS
MIDSECTION
BRIDGE
CHORUS

And the end is basically the chorus repeated a few times. Hope this does some good!

            
            
Suggest correction
Creating personal tab
Creating personal tab
You can edit any tab online and save it as your Personal.

You can edit, replace or remove any tab part or add personal notes – all changes will be seen only by you.

Personal tabs can be accessed anytime from any device, even offline.
Learn more »
comments
print report bad tab
1 comment total.
+2 reply
FR5 50 Feb 02, 2003 07:00 PM

VERSE 2 (2x)
|----------------|
|--55--5---55--5-|
|0---00--3---33--|
|----------------|
^

guest
You may want to rate the tab now too:
select rating
Wanna post a correction for this tab? Suggest correction