Oops, an error
Loading. Please wait.

Learning To Breathe tab

version 2
version 2

Whole song

Interactive

5,598 views 1 this week
1 commentread comment
1 2 3 4 5
x 3
add to favorites
×
Save as Personal and add changes to this tab that will be seen only by you. Learn more ›
×
You can save this tab as Personal to edit and correct it or add notes. All changes will be seen only by you. Learn more »
launch autoscroll
font size
0
reset
how to read this tab
guitar tuner
edit
Autoscroll
slow
fast
+/-
esc
set tempo
stop
Author
SWITCHFOOT-LEARNING TO BREATHE 

TUNING:STANDARD

Intro
  Q=80
       D5/G                               D5/AD5/C
 1/4  4/4
  Gtr I
  Q    S E S S S S S  S   S  Q            E
|----|--------------------------------------|
|----|-3-3-3-3-3-3-3----------------------3-|
|----|-2-4-2-4-2-2-4-(2)-(2)-4------------2-|
|----|-0-0-0-0-0-0-0--0---0--0------------0-|
|----|------------------------------------0-|
|----|-3-3-3-3-3-3-3--3---3--3--------------|
|
| Gtr II
|                            |----3----|
| Q    S E S S S S S  S   S  E    +E  +E  E
|----|--------------------------------------|
|----|-3-3-3-3-3-3-3------3---------------3-|
|----|-2-4-2-4-2-2-4--2---2--4b5==(4)r(4)-2-|
|----|-0-0-0-0-0-0-0--0---0--0----(0)-(0)-0-|
|----|--------------------------------------|
|----|-3-3-3-3-3-3-3--3---3--3----(3)-(3)---|


  S E S S S S S  S   S  Q            E
|---------------------------------------|
|-3-3-3-3-3-3-3---------0------------3--|
|-2-4-2-4-2-2-4-(2)-(2)-4------------2--|
|---------------------------------------|
|-3-3-3-3-3-3-3--3---3--3------------3--|
|---------------------------------------|
|
|                       |----3----|
| S E S S S S S  S   S  E    +E  +E  E
|---------------------------------------|
|-3-3-3-3-3-3-3------3---------------3--|
|-2-4-2-4-2-2-4--2---2--4b5==(4)r(4)-2--|
|---------------------------------------|
|-3-3-3-3-3-3-3--3---3--3----(3)-(3)-3--|
|---------------------------------------|


  D5/G                               D5/AD5/C    G5/C    Bm/C    G5/C
  S E S S S S S  S   S  Q            E   S S S S S S S S S S S S S S S S
|--------------------------------------|---------------------------------|
|-3-3-3-3-3-3-3----------------------3-|-3-3-3-3-3-3-3-3-3-3-3-3-3-3-3-3-|
|-2-4-2-4-2-2-4-(2)-(2)-4------------2-|-2-2-2-2-0-0-0-0-4-4-4-4-0-0-0-0-|
|-0-0-0-0-0-0-0--0---0--0------------0-|---------------------------------|
|------------------------------------0-|-3-3-3-3-3-3-3-3-3-3-3-3-3-3-3-3-|
|-3-3-3-3-3-3-3--3---3--3--------------|---------------------------------|
|
|                       |----3----|
| S E S S S S S  S   S  E    +E  +E  E   S S S S S S S S S S S S S S S S
|--------------------------------------|---------------------------------|
|-3-3-3-3-3-3-3------3---------------3-|-3-3-3-3-3-3-3-3-3-3-3-3-3-3-3-3-|
|-2-4-2-4-2-2-4--2---2--4b5==(4)r(4)-2-|-2-4-2-2-0-0-0-0-4-4-4-4-0-0-0-0-|
|-0-0-0-0-0-0-0--0---0--0----(0)-(0)-0-|---------------------------------|
|--------------------------------------|-3-3-3-3-3-3-3-3-3-3-3-3-3-3-3-3-|
|-3-3-3-3-3-3-3--3---3--3----(3)-(3)---|---------------------------------|


  D5/G                               D5/AD5/C
  S E S S S S S  S   S  Q            E   S E S S S S S  S   S  Q            E
|--------------------------------------|--------------------------------------|
|-3-3-3-3-3-3-3----------------------3-|-3-3-3-3-3-3-3---------0------------3-|
|-2-4-2-4-2-2-4-(2)-(2)-4------------2-|-2-4-2-4-2-2-4-(2)-(2)-4------------2-|
|-0-0-0-0-0-0-0--0---0--0------------0-|--------------------------------------|
|------------------------------------0-|-3-3-3-3-3-3-3--3---3--3------------3-|
|-3-3-3-3-3-3-3--3---3--3--------------|--------------------------------------|
|
|                       |----3----|                            |----3----|
| S E S S S S S  S   S  E    +E  +E  E   S E S S S S S  S   S  E    +E  +E  E
|--------------------------------------|--------------------------------------|
|-3-3-3-3-3-3-3------3---------------3-|-3-3-3-3-3-3-3------3---------------3-|
|-2-4-2-4-2-2-4--2---2--4b5==(4)r(4)-2-|-2-4-2-4-2-2-4--2---2--4b5==(4)r(4)-2-|
|-0-0-0-0-0-0-0--0---0--0----(0)-(0)-0-|--------------------------------------|
|--------------------------------------|-3-3-3-3-3-3-3--3---3--3----(3)-(3)-3-|
|-3-3-3-3-3-3-3--3---3--3----(3)-(3)---|--------------------------------------|


  D5/A            G5/A
  S S S S E   E   S S S S S S S S
|---------------------------------|
|-3-3-3-3-3---3---3-3-3-3-3-3-3-3-|
|-2-2-2-2-2---2---0-0-0-0-0-0-0-0-|
|-0-0-0-0-0---0---0-0-0-0-0-0-0-0-|
|-0-0-0-0-0---0---0-0-0-0-0-0-0-0-|
|---------------------------------|
|
| S S S S S S S S S S S S S S S S
|---------------------------------|
|-3-3-3-3-3-3-3-3-3-3-3-3-3-3-3-3-|
|-2-2-2-2-2-2-2-2-0-0-0-0-0-0-0-0-|
|-0-0-0-0-0-0-0-0-0-0-0-0-0-0-0-0-|
|-0-0-0-0-0-0-0-0-0-0-0-0-0-0-0-0-|
|---------------------------------|


  Dadd11/A
   S   S   S   S   S   S   S   S   S   S   S   S   S   S   S   S
|-----------------------------------------------------------------||
|--3---3---3---3---3---3---3---3---3---3---3---3---3---3---3---3--||
|-(0)-(0)-(0)-(0)-(0)-(0)-(0)-(0)-(0)-(0)-(0)-(0)-(0)-(0)-(0)-(0)-||
|--4---4---4---4---4---4---4---4---4---4---4---4---4---4---4---4--||
|--0---0---0---0---0---0---0---0---0---0---0---0---0---0---0---0--||
|-----------------------------------------------------------------||
|
|  S   S   S   S   S   S   S   S   S   S   S   S   S   S   S   S
|-----------------------------------------------------------------||
|--3---3---3---3---3---3---3---3---3---3---3---3---3---3---3---3--||
|-(0)-(0)-(0)-(0)-(0)-(0)-(0)-(0)-(0)-(0)-(0)-(0)-(0)-(0)-(0)-(0)-||
|--4---4---4---4---4---4---4---4---4---4---4---4---4---4---4---4--||
|--0---0---0---0---0---0---0---0---0---0---0---0---0---0---0---0--||
|-----------------------------------------------------------------||


   Verse 1
    Am                          C
    Gtr I
    E S S E S S s S E S S S S   E S S E S S s S E S S S S
||----------------------------|----------------------------|
||o-1-----1-1-1-1-1-1-1-1-1-1-|-1-1-1-1-1-1-1-1-1-1-1-1-1--|
||--2-2-2-2-2-2-2-2-2-2-2-2-2-|-0-0-0-0-0-0-0-0-0-0-0-0-0--|
||--2-2-2-2-2-2-2-2-2-2-2-2-2-|-2-2-2-2-2-2-2-2-2-2-2-2-2--|
||o-0-0---0-0-0-0-0-0-0-0-0-0-|-3-3---3-3-3-3-3-3-3-3-3-3--|
||----------------------------|----------------------------|


  D5/G    G5      Dadd11/G        G5
  S S S S S S S S  S   S   S   S  S S S S
|-----------------------------------------|
|-3-3-3-3-3-3-3-3--3---3---3---3--3-3-3-3-|
|-2-2-2-2-0-0-0-0-(0)-(0)-(0)-(0)-0-0-0-0-|
|-0-0-0-0-0-0-0-0--4---4---4---4--0-0-0-0-|
|-----------------------------------------|
|-3-3-3-3-3-3-3-3--3---3---3---3--3-3-3-3-|


  D5/G    G5      Dadd11/G        G5
  S S S S S S S S  S   S   S   S  S S S S
|------------------------------------------||
|-3-3-3-3-3-3-3-3--3---3---3---3--3-3-3-3-o||
|-2-2-2-2-0-0-0-0-(0)-(0)-(0)-(0)-0-0-0-0--||
|-0-0-0-0-0-0-0-0--4---4---4---4--0-0-0-0--||
|-----------------------------------------o||
|-3-3-3-3-3-3-3-3--3---3---3---3--3-3-3-3--||


 Pre-Chorus 1
  Cadd9      Gmaj7/B    D5
  W          W          E E E E E E E E   E E E E E E E S. T
|----------|-2--------|-----------------|--------------------||
|-3--------|-3--------|-3---3---3---3---|-3---3---3---3----3-||
|-0--------|-0--------|-2-2-2-2-2-2-2-2-|-2-2-2-2-2-2-2-2--0-||
|-2--------|-x--------|-0-0-0-0-0-0-0-0-|-0-0-0-0-0-0-0-0--0-||
|-3--------|-2--------|-----------------|--------------------||
|----------|----------|-----------------|--------------------||


   Chorus 1
    Cadd9                          Em7            G5/F# G5
    E. S  S S S e   S  E S S S S    E  S  S E S S E S S  E   S   S
||-------------------------------|----------------------------------|
||o-3-----3-3-3-3---3--3-3-3-3-3-|--3--3--3-3-3-3-3-3-3--3---3---3--|
||--0--0--0-0-0-0---0--0-0-0-0-0-|--0--0--0-0-0-0-0-0-0--0---0---0--|
||--2--2--2-2-2-2---2--2-2-2-2-2-|--2--2--2-2-2-2-0-0-0--0---0---0--|
||o-3--3--3---3-3---3--3-3-3-3-3-|--2--2--2-2-2-2-------------------|
||-------------------------------|--0--0--0-0-0-0-2-2-2-(3)-(3)-(3)-|
|
|   Gtr II
|   Q     Q       E    Q     E      E  Q.         H
||-------15-----------14---------|----------------------------------|
||o------------------------------|----15----------------------------|
||-------------------------------|-16-------------------------------|
||-------------------------------|----------------------------------|
||o------------------------------|----------------------------------|
||-------------------------------|----------------------------------|


  1.
  Cadd9                          Em7          G5/F# G5
  E. S  S S S e   S  E S S S S    E S S E S S E S S  E   S   S
|------------------------------|---------------------------------||
|-3-----3-3-3-3---3--3-3-3-3-3-|--3-3-3-3-3-3-3-3-3--3---3---3--o||
|-0--0--0-0-0-0---0--0-0-0-0-0-|--0-0-0-0-0-0-0-0-0--0---0---0---||
|-2--2--2-2-2-2---2--2-2-2-2-2-|--2-2-2-2-2-2-0-0-0--0---0---0---||
|-3--3--3---3-3---3--3-3-3-3-3-|--2-2-2-2-2-2-------------------o||
|------------------------------|--0-0-0-0-0-0-2-2-2-(3)-(3)-(3)--||
|
| Q     Q       E    Q     E      H           H
|------15-----------14---------|---------------------------------||
|------------------------------|--------------------------------o||
|------------------------------|-16------------------------------||
|------------------------------|---------------------------------||
|------------------------------|--------------------------------o||
|------------------------------|---------------------------------||


  2.
  D5                      Cadd9
  E E E S e S E S S S S   E S S E S e S E S S S T T
|-----------------------|---------------------------|
|-3-3-3-3-3-3-3-3-3-3-3-|-3---3-3-3-3-3-3-3-3-3-3-3-|
|-2-2-2-2-2-2-2-2-2-2-2-|-0-0-0-0-0-0-0-0-0-0-0-0-0-|
|-0-0-0---0-0-0-0-0-0-0-|-2-2-2-2-2-2-2-2-2-2-2-2-2-|
|-----------------------|-3-3-3-3-3-3-3-3-3-3-3-3-3-|
|-----------------------|---------------------------|


   Verse 2
                 D5/G    G5      Dadd11/G        G5
    Wx2          S S S S S S S S  S   S   S   S  S S S S
||-------------|-----------------------------------------|
||o------------|-3-3-3-3-3-3-3-3--3---3---3---3--3-3-3-3-|
||-------------|-2-2-2-2-0-0-0-0-(0)-(0)-(0)-(0)-0-0-0-0-|
||-------------|-0-0-0-0-0-0-0-0--4---4---4---4--0-0-0-0-|
||o------------|-----------------------------------------|
||-------------|-3-3-3-3-3-3-3-3--3---3---3---3--3-3-3-3-|


  D5/G    G5      Dadd11/G        G5
  S S S S S S S S  S   S   S   S  S S S S
|-------------------------------------------||
|-3-3-3-3-3-3-3-3--3---3---3---3--3-3-3-3--o||
|-2-2-2-2-0-0-0-0-(0)-(0)-(0)-(0)-0-0-0-0---||
|-0-0-0-0-0-0-0-0--4---4---4---4--0-0-0-0---||
|------------------------------------------o||
|-3-3-3-3-3-3-3-3--3---3---3---3--3-3-3-3---||


   Chorus 2
    Cadd9                          Em7            G5/F# G5
    E. S  S S S e   S  E S S S S    E  S  S E S S E S S  E   S   S
||-------------------------------|----------------------------------|
||o-3-----3-3-3-3---3--3-3-3-3-3-|--3--3--3-3-3-3-3-3-3--3---3---3--|
||--0--0--0-0-0-0---0--0-0-0-0-0-|--0--0--0-0-0-0-0-0-0--0---0---0--|
||--2--2--2-2-2-2---2--2-2-2-2-2-|--2--2--2-2-2-2-0-0-0--0---0---0--|
||o-3--3--3---3-3---3--3-3-3-3-3-|--2--2--2-2-2-2-------------------|
||-------------------------------|--0--0--0-0-0-0-2-2-2-(3)-(3)-(3)-|
|
|   Gtr II
|   Q     Q       E    Q     E      E  Q.         H
||-------15-----------14---------|----------------------------------|
||o------------------------------|----15----------------------------|
||-------------------------------|-16-------------------------------|
||-------------------------------|----------------------------------|
||o------------------------------|----------------------------------|
||-------------------------------|----------------------------------|


  1.
  Cadd9                          Em7          G5/F# G5
  E. S  S S S e   S  E S S S S    E S S E S S E S S  E   S   S
|------------------------------|---------------------------------||
|-3-----3-3-3-3---3--3-3-3-3-3-|--3-3-3-3-3-3-3-3-3--3---3---3--o||
|-0--0--0-0-0-0---0--0-0-0-0-0-|--0-0-0-0-0-0-0-0-0--0---0---0---||
|-2--2--2-2-2-2---2--2-2-2-2-2-|--2-2-2-2-2-2-0-0-0--0---0---0---||
|-3--3--3---3-3---3--3-3-3-3-3-|--2-2-2-2-2-2-------------------o||
|------------------------------|--0-0-0-0-0-0-2-2-2-(3)-(3)-(3)--||
|
| Q     Q       E    Q     E      H           H
|------15-----------14---------|---------------------------------||
|------------------------------|--------------------------------o||
|------------------------------|-16------------------------------||
|------------------------------|---------------------------------||
|------------------------------|--------------------------------o||
|------------------------------|---------------------------------||


  2.
  D5                     Cadd9
  E E Q  S S E S S S S   E S S E S e S E S S S S
|----------------------|-------------------------||
|-3-3-3--3-3-3-3-3-3-3-|-3---3-3-3-3-3-3-3-3-3-3-||
|-2-2-2--2-2-2-2-2-2-2-|-0-0-0-0-0-0-0-0-0-0-0-0-||
|-0-0-0--0-0-0-0-0-0-0-|-2-2-2-2-2-2-2-2-2-2-2-2-||
|----------------------|-3-3-3-3-3-3-3-3-3-3-3-3-||
|----------------------|-------------------------||


   Bridge
    Em7                           Cadd9
    Gtr I
    E S S E   S S s S E S S S S   E S S E S S s S E S S S S
||------------------------------|---------------------------|
||o-3-3-3-3---3-3-3-3-3-3-3-3-3-|-3-3-3-3-3-3-3-3-3-3-3-3-3-|
||--0-0-0-0---0-0-0-0-0-0-0-0-0-|-0-0-0-0-0-0-0-0-0-0-0-0-0-|
||--2-2-2-2---2-2-2-2-2-2-2-2-2-|-2-2-2-2-2-2-2-2-2-2-2-2-2-|
||o-2-2-2-2---2-2-2-2-2-2-2-2-2-|-3-3-3-3-3-3-3-3-3-3-3-3-3-|
||--0-0-0-0---0-0-0-0-0-0-0-0-0-|---------------------------|
|
|   Gtr II
|   E S S S e   S s S E S S S S   E S S E S S s S E S S S S
||------------------------------|---------------------------|
||o-8-8-8-8-8---8-8-8-8-8-8-8-8-|-3-3-3-3-3-3-3-3-3-3-3-3-3-|
||--9-9-9-9-9---9-9-9-9-9-9-9-9-|-0-0-0-0-0-0-0-0-0-0-0-0-0-|
||--x-x-x-x-x---x-x-x-x-x-x-x-x-|-2-2-2-2-2-2-2-2-2-2-2-2-2-|
||o-7-7-7-7-7---7-7-7-7-7-7-7-7-|-3-3-3-3-3-3-3-3-3-3-3-3-3-|
||------------------------------|---------------------------|


  D5/G    G5      Dadd11/G        G5
  Gtrs I, II
  S S S S S S S S  S   S   S   S  S S S S
|-----------------------------------------|
|-3-3-3-3-3-3-3-3--3---3---3---3--3-3-3-3-|
|-2-2-2-2-0-0-0-0-(0)-(0)-(0)-(0)-0-0-0-0-|
|-0-0-0-0-0-0-0-0--4---4---4---4--0-0-0-0-|
|-----------------------------------------|
|-3-3-3-3-3-3-3-3--3---3---3---3--3-3-3-3-|


  D5/G    G5      Dadd11/G        G5
  S S S S S S S S  S   S   S   S  S S S S
|------------------------------------------||
|-3-3-3-3-3-3-3-3--3---3---3---3--3-3-3-3-o||
|-2-2-2-2-0-0-0-0-(0)-(0)-(0)-(0)-0-0-0-0--||
|-0-0-0-0-0-0-0-0--4---4---4---4--0-0-0-0--||
|-----------------------------------------o||
|-3-3-3-3-3-3-3-3--3---3---3---3--3-3-3-3--||


 Pre-Chorus 2
  Cadd9      Gmaj7/B    Cadd9      Gmaj7/B
  W          W          W          W
|----------|-2--------|----------|-2----|
|-3--------|-3--------|-3--------|-3----|
|-0--------|-0--------|-0--------|-0----|
|-2--------|-x--------|-2--------|-x----|
|-3--------|-2--------|-3--------|-2----|
|----------|----------|----------|------|


  Cadd9      Gmaj7/B    D5
  W          W          E E E E E E E E   E E E E E E E E
|----------|-2--------|-----------------|-----------------||
|-3--------|-3--------|-3---3---3---3---|-3---3---3---3---||
|-0--------|-0--------|-2-2-2-2-2-2-2-2-|-2-2-2-2-2-2-2-2-||
|-2--------|-x--------|-0-0-0-0-0-0-0-0-|-0-0-0-0-0-0-0-0-||
|-3--------|-2--------|-----------------|-----------------||
|----------|----------|-----------------|-----------------||


   Chorus 3
    Cadd9                          Em7            G5/F# G5
    Gtr I
    E. S  S S S e   S  E S S S S    E  S  S E S S E S S  E   S   S
||-------------------------------|----------------------------------|
||o-3-----3-3-3-3---3--3-3-3-3-3-|--3--3--3-3-3-3-3-3-3--3---3---3--|
||--0--0--0-0-0-0---0--0-0-0-0-0-|--0--0--0-0-0-0-0-0-0--0---0---0--|
||--2--2--2-2-2-2---2--2-2-2-2-2-|--2--2--2-2-2-2-0-0-0--0---0---0--|
||o-3--3--3---3-3---3--3-3-3-3-3-|--2--2--2-2-2-2-------------------|
||-------------------------------|--0--0--0-0-0-0-2-2-2-(3)-(3)-(3)-|
|
|   Gtr II
|   Q     Q       E    Q     E      E  Q.         H
||-------15-----------14---------|----------------------------------|
||o------------------------------|----15----------------------------|
||-------------------------------|-16-------------------------------|
||-------------------------------|----------------------------------|
||o------------------------------|----------------------------------|
||-------------------------------|----------------------------------|


  1.
  Cadd9                          Em7          G5/F# G5
  E. S  S S S e   S  E S S S S    E S S E S S E S S  E   S   S
|------------------------------|---------------------------------||
|-3-----3-3-3-3---3--3-3-3-3-3-|--3-3-3-3-3-3-3-3-3--3---3---3--o||
|-0--0--0-0-0-0---0--0-0-0-0-0-|--0-0-0-0-0-0-0-0-0--0---0---0---||
|-2--2--2-2-2-2---2--2-2-2-2-2-|--2-2-2-2-2-2-0-0-0--0---0---0---||
|-3--3--3---3-3---3--3-3-3-3-3-|--2-2-2-2-2-2-------------------o||
|------------------------------|--0-0-0-0-0-0-2-2-2-(3)-(3)-(3)--||
|
| Q     Q       E    Q     E      H           H
|------15-----------14---------|---------------------------------||
|------------------------------|--------------------------------o||
|------------------------------|-16------------------------------||
|------------------------------|---------------------------------||
|------------------------------|--------------------------------o||
|------------------------------|---------------------------------||


  2.
  D5                        Cadd9
  E E S S S S E E S S S S   E E E S e S E S S S S
|-------------------------|-----------------------|
|-3-3-3-3-3-3-3-3-3-3-3-3-|-3-3-3-3-3-3-3-3-3-3-3-|
|-2-2-2-2-2-2-2-2-2-2-2-2-|-0-0-0-0-0-0-0-0-0-0-0-|
|-0-0-0-0-0-0-0-0-0-0-0-0-|-2-2-2-2-2-2-2-2-2-2-2-|
|-------------------------|-3-3-3-3-3-3-3-3-3-3-3-|
|-------------------------|-----------------------|
|
| W                         W
|-------------------------|-----------------------|
|-------------------------|-----------------------|
|-------------------------|-----------------------|
|-------------------------|-----------------------|
|-------------------------|-----------------------|
|-------------------------|-----------------------|


  D5                        Cadd9
  E S S E S e S E S S S S   E S S E S e S E S S S S
|-------------------------|-------------------------|
|-3-3-3-3-3-3-3-3-3-3-3-3-|-3---3-3-3-3-3-3-3-3-3-3-|
|-2-2-2-2-2-2-2-2-2-2-2-2-|-0-0-0-0-0-0-0-0-0-0-0-0-|
|-0-0-0-0-0-0-0-0-0-0-0-0-|-2-2-2-2-2-2-2-2-2-2-2-2-|
|-------------------------|-3-3-3-3-3-3-3-3-3-3-3-3-|
|-------------------------|-------------------------|
|
| E S S E S e S E S S S S   E S S E S e S E S S S S
|-------------------------|-------------------------|
|-3-3-3-3-3-3-3-3-3-3-3-3-|-3---3-3-3-3-3-3-3-3-3-3-|
|-0-0-0-0-0-0-0-0-0-0-0-0-|-0-0-0-0-0-0-0-0-0-0-0-0-|
|-2-2-2-2-2-2-2-2-2-2-2-2-|-2-2-2-2-2-2-2-2-2-2-2-2-|
|-0-0-0-0-0-0-0-0-0-0-0-0-|-3-3-3-3-3-3-3-3-3-3-3-3-|
|-------------------------|-------------------------|


  Em7                       Cadd9
  E S S E S e S E S S S S   E S S E S e S E S S S S
|-------------------------|-------------------------||
|-3-3-3-3-3-3-3-3-3-3-3-3-|-3---3-3-3-3-3-3-3-3-3-3-||
|-0-0-0-0-0-0-0-0-0-0-0-0-|-0-0-0-0-0-0-0-0-0-0-0-0-||
|-2-2-2-2-2-2-2-2-2-2-2-2-|-2-2-2-2-2-2-2-2-2-2-2-2-||
|-2-2-2-2-2-2-2-2-2-2-2-2-|-3-3-3-3-3-3-3-3-3-3-3-3-||
|-0-0-0-0-0-0-0-0-0-0-0-0-|-------------------------||
|
| E S S E S e S E S S S S   E S S E S e S E S S S S
|-------------------------|-------------------------||
|-3-3-3-3-3-3-3-3-3-3-3-3-|-3---3-3-3-3-3-3-3-3-3-3-||
|-0-0-0-0-0-0-0-0-0-0-0-0-|-0-0-0-0-0-0-0-0-0-0-0-0-||
|-2-2-2-2-2-2-2-2-2-2-2-2-|-2-2-2-2-2-2-2-2-2-2-2-2-||
|-0-0-0-0-0-0-0-0-0-0-0-0-|-3-3-3-3-3-3-3-3-3-3-3-3-||
|-------------------------|-------------------------||


   Out-Chorus
    Cadd9                          Em7            G5/F# G5
    E. S  S S S e   S  E S S S S    E  S  S E S S E S S  E   S   S
||-------------------------------|----------------------------------|
||o-3-----3-3-3-3---3--3-3-3-3-3-|--3--3--3-3-3-3-3-3-3--3---3---3--|
||--0--0--0-0-0-0---0--0-0-0-0-0-|--0--0--0-0-0-0-0-0-0--0---0---0--|
||--2--2--2-2-2-2---2--2-2-2-2-2-|--2--2--2-2-2-2-0-0-0--0---0---0--|
||o-3--3--3---3-3---3--3-3-3-3-3-|--2--2--2-2-2-2-------------------|
||-------------------------------|--0--0--0-0-0-0-2-2-2-(3)-(3)-(3)-|
|
|   Gtr II
|   Q     Q       E    Q     E      E  Q.         H
||-------15-----------14---------|----------------------------------|
||o------------------------------|----15----------------------------|
||-------------------------------|-16-------------------------------|
||-------------------------------|----------------------------------|
||o------------------------------|----------------------------------|
||-------------------------------|----------------------------------|


  Cadd9                          Em7          G5/F# G5
  E. S  S S S e   S  E S S S S    E S S E S S E S S  E   S   S
|------------------------------|--------------------------------|
|-3-----3-3-3-3---3--3-3-3-3-3-|--3-3-3-3-3-3-3-3-3--3---3---3--|
|-0--0--0-0-0-0---0--0-0-0-0-0-|--0-0-0-0-0-0-0-0-0--0---0---0--|
|-2--2--2-2-2-2---2--2-2-2-2-2-|--2-2-2-2-2-2-0-0-0--0---0---0--|
|-3--3--3---3-3---3--3-3-3-3-3-|--2-2-2-2-2-2-------------------|
|------------------------------|--0-0-0-0-0-0-2-2-2-(3)-(3)-(3)-|
|
| Q     Q       E    Q     E      H           H
|------15-----------14---------|--------------------------------|
|------------------------------|--------------------------------|
|------------------------------|-16-----------------------------|
|------------------------------|--------------------------------|
|------------------------------|--------------------------------|
|------------------------------|--------------------------------|


  Cadd9                          Em7            G5/F# G5
  E. S  S S S e   S  E S S S S    E  S  S E S S E S S  E   S   S
|------------------------------|----------------------------------|
|-3-----3-3-3-3---3--3-3-3-3-3-|--3--3--3-3-3-3-3-3-3--3---3---3--|
|-0--0--0-0-0-0---0--0-0-0-0-0-|--0--0--0-0-0-0-0-0-0--0---0---0--|
|-2--2--2-2-2-2---2--2-2-2-2-2-|--2--2--2-2-2-2-0-0-0--0---0---0--|
|-3--3--3---3-3---3--3-3-3-3-3-|--2--2--2-2-2-2-------------------|
|------------------------------|--0--0--0-0-0-0-2-2-2-(3)-(3)-(3)-|
|
| Q     Q       E    Q     E      E  Q.         H
|------15-----------14---------|----------------------------------|
|------------------------------|----15----------------------------|
|------------------------------|-16-------------------------------|
|------------------------------|----------------------------------|
|------------------------------|----------------------------------|
|------------------------------|----------------------------------|


  D5                        Cadd9
  E E S S S S E E S S S S   E E E S e S E S S S S
|-------------------------|------------------------||
|-3-3-3-3-3-3-3-3-3-3-3-3-|-3-3-3-3-3-3-3-3-3-3-3-o||
|-2-2-2-2-2-2-2-2-2-2-2-2-|-0-0-0-0-0-0-0-0-0-0-0--||
|-0-0-0-0-0-0-0-0-0-0-0-0-|-2-2-2-2-2-2-2-2-2-2-2--||
|-------------------------|-3-3-3-3-3-3-3-3-3-3-3-o||
|-------------------------|------------------------||



Duration Legend
---------------
W - whole; H - half; Q - quarter; E - 8th; S - 16th; T - 32nd; X - 64th; a - acciaccatura
+ - note tied to previous; . - note dotted; .. - note double dotted
Uncapitalized letters represent notes that are staccato (1/2 duration)
Irregular groupings are notated above the duration line
Duration letters will always appear directly above the note/fret number it represents the
duration for.  Duration letters with no fret number below them represent rests.  Multi-
bar rests are notated in the form Wxn, where n is the number of bars to rest for.  Low
melody durations appear below the staff

Tablature Legend
----------------
 h   - hammer-on
 p   - pull-off
 b   - bend
 pb  - pre-bend
 r   - bend release (if no number after the r, then release immediately)
 /\  - slide into or out of (from/to "nowhere")
 s   - legato slide
 S   - shift slide
 - natural harmonic
[n]  - artificial harmonic
n(n) - tapped harmonic
 ~   - vibrato
 tr  - trill
 T   - tap
 TP  - trem. picking
 PM  - palm muting
\n/  - tremolo bar dip; n = amount to dip
 \n  - tremolo bar down
 n/  - tremolo bar up
/n\  - tremolo bar inverted dip
 =   - hold bend; also acts as connecting device for hammers/pulls
 <> - volume swell (louder/softer)
 x   - on rhythm slash represents muted slash
 o   - on rhythm slash represents single note slash

Misc Legend
-----------
 |  - bar
||  - double bar
||o - repeat start
o|| - repeat end
*|  - double bar (ending)
 :  - bar (freetime)
 $  - Segno

            
            
Suggest correction
Creating personal tab
Creating personal tab
You can edit any tab online and save it as your Personal.

You can edit, replace or remove any tab part or add personal notes – all changes will be seen only by you.

Personal tabs can be accessed anytime from any device, even offline.
Learn more »
Give kudos to tab author, rate the tab!
1 2 3 4 5
comments
print report bad tab
1 comment total.
+1 reply
macky_o_mac 10 Oct 09, 2007 04:37 PM

i was about to tab this myself but well... you did a great job! i saw this version for the guitar pro a year ago though. thanks for posting this! ;)

guest
You may want to rate the tab now too:
select rating
Wanna post a correction for this tab? Suggest correction