Oops, an error
Loading. Please wait.

Let Your Love Be Strong tab

version 3
version 3

Whole song

9,933 views 1 this week
no commentswrite comment
1 2 3 4 5
x 3
add to favorites
×
Save as Personal and add changes to this tab that will be seen only by you. Learn more ›
×
You can save this tab as Personal to edit and correct it or add notes. All changes will be seen only by you. Learn more »
launch autoscroll
font size
0
reset
how to read this tab
guitar tuner
edit
Autoscroll
slow
fast
+/-
esc
set tempo
stop
Intro: acoustic (p= pull-off)
e-------------------------------------------------------------------------->
B-------------------------------------------------------------------------->
G-------------------------------------------------------------------------->
D----4---4---4--5420--7---8---8---8---9---11--11--110--12--14---14--14/16-->
A---0--0---0---0----0---0---7---7--70---0---9---9----0---0---12---12-----0->
D-0------------------------------------------------------------------------>
                 ppp                               /\that’s ELEVEN-ZERO
intro:
e-------------------------------------------------------------------------->
B-------------------------------------------------------------------------->
G-------------------------------------------------------------------------->
D----4---4---4--5420--7---8---8---8---9---11--11--110--12-14--14--14--14--->
A---0--0---0---0----0---0---7---7--70---0---9---9----0---0--12--12--12--12->
D-0------------------------------------------------------------------------>

Verse 1: (repeat)
e-------------------------------------------------------------------------->
B-------------------------------------------------------------------------->
G-------------------------------------------------------------------------->
D----4---4---4-------7---7---7---------12--------12--------11--------9----->
A---0--0---0---0----4--4---4---4-----9---9-----8---8-----7---7-----5---5--->
D-0--------------0/4-------------4/9-------9\8-------8\7-------7\5-------5->
In this world of news, I've found nothing new/I've found nothing pure/Maybe
I'm just idealistic to assume that truth/Could be fact and form/That love
could be a verb/Maybe I'm just a little misinformed

Fill: (p= pull-off)
e---------------------------------------->
B---------------------------------------->
G---------------------------------------->
D----4---4---4--5420-----4---4---4---4--->
A---0--0---0---0----0---0--0---0---0---0->
D-0-------------------0------------------>
                 ppp
Verse 2: (repeat)
e----0---0---0-------0---0---0---------0---------0---------0---------0----->
B----0---0---0-------0---0---0---------0---------0---------0---------0----->
G-------------------------------------------------------------------------->
D----4---4---4-------7---7---7---------12--------12--------11--------9----->
A---0--0---0---0----4--4---4---4-----9---9-----8---8-----7---7-----5---5--->
D-0--------------9/4-------------4/9-------9\8-------8\7-------7\5-------5->
As the dead moon rises, and the freeways sigh/Let the trains watch over the
tides and the mist/Spinning circles in our skies tonight/Let the trucks
roll in from Los Angeles/Maybe our stars are unanimously tired

Fill 2:
e----0---0---0---------->
B----0---0---0---------->
G----------------------->
D----4---4---4--5-0-4--->
A---0--0---0---0------0->
D-0--------------------->

Chorus: guitar 2: (electric, no distortion) (listen to song for rhythm)
e-----14----------14---------14-12-------14-----17--14-13~----------------->
B----15---15~----15---------15---15~----15---------15--11~----151312~------>
G-1416---14-----14-------1416----------14---------16-------1414---12~--11~->
D-------17-----16---16~---------------17---17~-------------15-----12~--12~->
A----------------------------------------------------------------------12~->
D-------------------------------------------------------------------------->
Let your love be strong, and I don't care what goes down/Let your love be
strong enough to weather through the thunder cloud/Fury and thunder clap
like stealing the fire from your eyes

Chorus con’t: acoustic
e---3~----5~----7---7---7---->
B--3-----5-----7--7---7---7-->
G-0-----7-----9-------------->
D---------------------------->
A---------------------------->
D---------------------------->
All of my world hanging on your love

Fill 3: guitar 2
e-2~----------------------------------------------------------------------->
B-3~----------------------------------------------------------------------->
G-2~----------------------------------------------------------------------->
D-0~------------------7~--8~----------9~--11~---------12~-14~-------------->
A-0~----------------------------------------------------------------------->
D-0~----------------------------------------------------------------------->

Fill: 3: acoustic
e-------------------------------------------------------------------------->
B-------------------------------------------------------------------------->
G-------------------------------------------------------------------------->
D----4---4---4--5420--7---8---8---8---9---11--11--110-12--14--14--14--14--->
A---0--0---0---0----0---0---7---7--70---0---9---9----0---0--12--12--12--12->
D-0------------------------------------------------------------------------>

Verse 3: (violins, bass, drums)(you can play this like verses 1 or 2)
Let the wars begin, let my strength wear thin/Let my fingers crack, let my
world fall apart/Train the monkeys on my back to fight/Let it start tonight/
When my world explodes, when my stars touch the ground/Falling down like
broken satellites

Chorus 2: guitar 2 (listen to song for rhythm)
e-----------------14---------14-12-------14-----17--14-13~----------------->
B---------15~----15---------15---15~----15---------15--11~----151312~------>
G-14~-----------14-------1416----------14---------16-------1414---12~--11~->
D--------------16---16~---------------17---17~-------------15-----12~--12~->
A----------------------------------------------------------------------12~->
D-------------------------------------------------------------------------->
Let your love be strong, and I don't care what goes down/Let your love be
strong enough to weather through the thunder cloud/Fury and thunder clap
like stealing the fire from your skies

Chorus 2 con’t: acoustic
e---3~----5~----7---7---7-----3~----5~----7---7---7---->
B--3-----5-----7--7---7---7--3-----5-----7--7---7---7-->
G-0-----7-----9-------------0-----7-----9-------------->
D------------------------------------------------------>
A------------------------------------------------------>
D------------------------------------------------------>
All of my world hanging on your love/All of my world resting on your love

Outro: (rit... in music terms means “retardando” which is to slow the tempo)
e-------------------------------------------------------------------------->
B-------------------------------------------------------------------------->
G-------------------------------------------------------------------------->
D----4---4---4--5420--7---8---8---8---9---11--11--110-12--14--14--14--14--->
A---0--0---0---0----0---0---7---7--70---0---9---9----0---0--12--12--12--12->
D-0------------------------------------------------------------------------>
                                                           rit...
outro:
e------------------------------>
B-----------3~----------------->
G-----------2~----------------->
D-14/16\----0~----------------->
A-------0-0-0~----------------->
D-----------0~----------------->

            
            
Suggest correction
Creating personal tab
Creating personal tab
You can edit any tab online and save it as your Personal.

You can edit, replace or remove any tab part or add personal notes – all changes will be seen only by you.

Personal tabs can be accessed anytime from any device, even offline.
Learn more »
Give kudos to tab author, rate the tab!
1 2 3 4 5
comments
print report bad tab
guest
You may want to rate the tab now too:
select rating
Wanna post a correction for this tab? Suggest correction