Oops, an error
Loading. Please wait.

Meant To Live bass

version 3
version 3

Whole song

4,013 views 9 this week
3 commentsread comments
1 2 3 4 5
1 last vote to show rating
add to favorites
×
Save as Personal and add changes to this tab that will be seen only by you. Learn more ›
×
You can save this tab as Personal to edit and correct it or add notes. All changes will be seen only by you. Learn more »
launch autoscroll
font size
0
reset
guitar tuner
backing track
0:00
0:00
edit
Autoscroll
slow
fast
+/-
esc
set tempo
stop
None of the other tabs were right, so I thought I'd give everyone something better.

Meant To Live - SwitchFoot

BASS
Tabbed By Kalen Garver
Tuning - Drop D (GDAD)
Time - 4/4

*NOTE* Each Space = 1/8th Note. Ignore if you don't know what this
       means. Not sure how to make it any easier to read.
/ = Slide Up
\ = Slide Down
^ = Bend
______________________________________________________________________

GUITAR INTRO  
     =No Bass

INTRO
   |--------|--------|--------|--------|
   |--------|--------|--------|--------|
   |222-----|000-----|--------|------0-|
   |--------|--------|222----0|200-05--|

   |--------|--------|--------|--------|
   |--------|--------|--------|--------|
   |222-----|000-----|--------|--------|
   |--------|--------|222-----|44444444|

   |--------|--------|--------|--------|
   |--------|--------|--------|--------|
   |--------|--------|--------|--------|
   |5 Hold For A While (Somewhere around 4.5 bars)

VERSE  
   |--------|--------|--------|--------|
   |--------|--------|--------|--------|
   |--------|--------|--------|--------|
   |400-20-0|400-454-|400-20-0|400-457-|

   |--------|--------|--------|--------|
   |--------|--------|--------|--------|
   |--------|--------|--------|--------|
   |5 Hold For a While (Somewhere around 4.5 bars)
    
   |--------|--------|--------|--------|
   |--------|--------|--------|--------|
   |--------|--------|--------|--------|
   |400-20-0|400-454-|400-20-0|400-457-|

CHORUS
   |--------|--------|--------|--------|
   |--------|--------|--------|--------|
   |--------|--------|--------|--------|
   |555-----|777-----|999----0|222-5^--|

   |--------|--------|--------|--------|
   |--------|--------|--------|--------|
   |--------|--------|--------|--------|
   |555----0|222-----|555----0|222--5/-|

   |--------|--------|--------|--------|
   |--------|--------|--------|--------|
   |--------|--------|--------|--------|
   |555-----|777-----|999----0|222-5^--|

   |--------|--------|
   |--------|--------|
   |--------|--------|
   |555----0|222-----|

   PRE-VERSE  =Same As Verse, But Only Five Bars
   VERSE      =Add '5/17\5' At End Of Hold
   Chorus     =Add '2/' At End Of Last Bar

BRIDGE
   |--------|--------|--------|--------|
   |--------|--------|--------|--------|
   |--------|--------|--------|------0-|
   |999-----|777-----|222----0|200-05--|

   |--------|--------|--------|--------|
   |--------|--------|--------|--------|
   |222-----|000-----|--------|--------|
   |--------|--------|222-----|44444440|

   |--------|--------|--------|--------|
   |--------|--------|--------|--------|
   |--------|--------|--------|--------|
   |0-------|-------/|5-------|-------\| x2

   |--------|--------|--------|--------|
   |--------|--------|--------|--------|
   |--------|--------|--------|--------|
   |0-------|--------|-----/2-|2-5-5---|

   |--------|--------|--------|--------|
   |--------|--------|--------|--------|
   |--------|3-3-3-3-|3-3-3-3-|--------|
   |--------|--------|--------|5-5-5-5-|

   |--------|--------|--------|--------|
   |--------|--------|--------|--------|
   |--------|
   |5-5-5-5-|

BREAKDOWN
   |--------|--------|--------|--------|
   |--------|--------|--------|--------|
   |--------|/5-55555|--------|/9-99999|
   |5-0-0-00|--------|5-0-0-00|--------| x4

OUTRO
   |--------|--------|--------|--------|
   |--------|--------|--------|--------|
   |222-----|000-----|--------|--------|
   |--------|--------|2------- Hold Last Note Till Fade Out

            
            
Suggest correction
Creating personal tab
Creating personal tab
You can edit any tab online and save it as your Personal.

You can edit, replace or remove any tab part or add personal notes – all changes will be seen only by you.

Personal tabs can be accessed anytime from any device, even offline.
Learn more »
Give kudos to tab author, rate the tab!
1 2 3 4 5
comments
print report bad tab
3 comments total.
0 reply
tackzx 31 Aug 13, 2009 12:23 PM

I made a typo. On the second line of the chorus, everything should be on the bottom string haha. My bad.

+1 reply
Jon777 342 Aug 13, 2009 06:12 PM

You can edit your tab and fix it ya know.

0 reply
tackzx 31 Aug 16, 2009 01:40 PM

really? sweet... haha

guest
You may want to rate the tab now too:
select rating
Wanna post a correction for this tab? Suggest correction