Oops, an error
Loading. Please wait.

Meant To Live bass

version 4
version 4

Whole song

1,445 views 3 this week
no commentswrite comment
1 2 3 4 5
x 3
add to favorites
×
Save as Personal and add changes to this tab that will be seen only by you. Learn more ›
×
You can save this tab as Personal to edit and correct it or add notes. All changes will be seen only by you. Learn more »
launch autoscroll
font size
0
reset
guitar tuner
backing track
0:00
0:00
edit
Autoscroll
slow
fast
+/-
esc
set tempo
stop
Switchfoot
Meant to live
BAND   : Switchfoot
SONG   : meant to live
TABBER : drewdunkin1992
TUNNING: drop-D/Dadg


This is based off the most popular/music video version... I use some editing programs
To isolate the bass track , by cutting out the unwanted frequencies...have fun...


intro
0:08 0:14
G------------------------------|----------------------------------|
D------------------------------|----------------------------------|
A-222-x--000-x---------------0~|-222-x--000-x-----/9--------------|
D---------------222-x-0200002--|--------------222-----444444455~~-|


verse
0:26                                            0:32
G-----------------------------------------------|-----------------|
D-----------------------------------------------|-----------------|
A-----------------------------------------------|-----------------|
D-4p0-002p0-004p0-00-454~-4p0-002p0-004p0-00-457|5~~~~~~~~~~~~~~~~|
Badup abada abadup ada badup

0:39
G-----------------------------------------------|
D-----------------------------------------------|
A-----------------------------------------------|
D-4p0-002p0-004p0-00-454~-4p0-002p0-004p0-00-457|


Chorus
0:45
G------------------------------------------------------------------|
D------------------------------------------------------------------|
A-----------------------9b.5---------------------------------------|
D-555---777--/999--0222-------555x--0222-------555-0222-02012\\\\--|
                                                           twelve

0:57
G------------------------------------------7~----|
D-------------------------------------------9///-|
A----------------------/9b.5-------------/9~~----|
D-555---777--7999--0222-------555x--02p00--------|

Verse 2
1:06                                           1:13
G---------------------------------------------|-----------------|
D---------------------------------------------|-----------------|
A---------------------------------------------|-----------------|
D-4p0--02p0--04p0-0-454~-4p0--02p0--04p0-0-457|5~~~~~~~~~~~~~~~~|

1:19                                          1:25     1:30
G---------------------------------------------|-----------------|
D---------------------------------------------|-----------------|
A---------------------------------------------|--------/17------|
D-4p0--02p0--04p0-0-454~-4p0--02p0--04p0-0-457|5~~~~~~~~--19\\\\| 


Pre-chorus
1:31
G-----------------------------------------------|
D-----------------------------------------------|
A-----------------------------------------------|
D-4p0-002p0-004p0-00-454~-4p0-002p0-004p0-00-457|


Chorus2
1:38
G------------------------------------------------------------------|
D------------------------------------------------------------------|
A-----------------------9b.5---------------------------------------|
D-555--/777--/999--0222-------555x--0222-------555-0222-02012\\\\--|


1:50
G------------------------------------------------|
D------------------------------------------------|
A----------------------/9b.5------------02045----|
D-555---777--7999--0222-------555x--0222---------|

Intro tag
2:00                            2:05
G------------------------------|---------------------------------|
D---------------------------0~~|---------------------------------|
A-222-x--000-x-----------------|-222-x--000-x-----/7\------------|
D---------------222-x-040002---|--------------222-----44444444444|

Bridge bass solo
2:12
G---------------------------------------------------/9~~---------|
D-12~~~~~12~~12~~~~12~~~~~~~~~~12~~12~~~~12~~~~~~~--5------------|
A------10~~(10)~~10~~10~12~~~10~~(10)~~10~~10~12~~/7/10~\\-------|
D---------------------------------------------12~~---------------|

2:30                               2:37 bend all 9 on the A string ^.5
G---------------------------------|-----------------------------------|
D-------------------------55555555|5\-------------5\\-------------9\\-|
A-3333333333333333----------------|5\------55555555\\------99999999\\-|
D-----------------55555555--------|-0000000--------00000000-----------|

2:42-3:00
G|------------------------------------|
D|---------------5\\-------------9\\--|x3
A|--------55555555\\------99999999\\--|x3
D|-0000000--------00000000------------|

3:01
G------------------|
D------------------|
A-222-x--000-------|
D---------------2~~|

            
            
Suggest correction
Creating personal tab
Creating personal tab
You can edit any tab online and save it as your Personal.

You can edit, replace or remove any tab part or add personal notes – all changes will be seen only by you.

Personal tabs can be accessed anytime from any device, even offline.
Learn more »
Give kudos to tab author, rate the tab!
1 2 3 4 5
comments
print report bad tab
guest
You may want to rate the tab now too:
select rating
Wanna post a correction for this tab? Suggest correction