Oops, an error
Loading. Please wait.

Only Hope tab

version 3
23,949 views 6 this week
3 commentsread comments
1 2 3 4 5
x 5
add to favorites
×
Save as Personal and add changes to this tab that will be seen only by you. Learn more ›
×
You can save this tab as Personal to edit and correct it or add notes. All changes will be seen only by you. Learn more »
launch autoscroll
font size
0
reset
how to read this tab
guitar tuner
edit
Autoscroll
slow
fast
+/-
esc
set tempo
stop
Author
-------------------------------------------------------------------------------
                             ONLY HOPE - Switchfoot
-------------------------------------------------------------------------------
Tabbed by:  Ippy
Email:  mci@utm.utoronto.ca

Hey everyone, this is my first tab (don't start rolling your eyes, I know I do
too).  But this should be good.  I've listened to the song and this seems to be
how its played on their Meant to Live cd.  I hope its all good and that it works
out for you!

Tuning:  Standard

Piano Intro

e|--10--12--------------10--|
B|------------------12------|
G|----------12--11----------|
D|--------------------------|
A|--------------------------|
E|--------------------------|

Guitar Intro x2

e|-------------------------0-------------------------------------------------|
B|-------------------3--------0--1/3--3--3--1p--2/4--2p----------------------|
G|-------0--------4-----4--------------------------------------0-------------|
D|-2--------5--------------------------------------------2--4-----4--2--1--2-|
A|----2--------5-------------------------3---------------3-------------------|
E|-0--------3--------2--------0--------------------------------------------0-|

Verse x4

e|------------------------------------------------------------------------------------|
B|----------3--------0--------------------------3-----------3-----------3-------------|
G|-------0--------------------2--------------0-----0-----0-----0-----0--------------5-|
D|--1/2-----------0--------0-----------4-----------------------------------------5----|
A|----------------------2-----------2-----3-----------------------3--------3--2-------|
E|-------------3-----------------0--------------------3-------------------------------|

Chorus

e|--0----0----0--------0----0----0----0----0----0----x----x------------------|
B|--0----0----0--------0----0----0----5----0----5----x----x------------------|
G|--1----4----6--------1----4----6----6----6----6----5----4------------------|
D|--2----4----7--------2----4----7----6----7----6----5----4------------------|
A|--2----2----7--------2----2----7----4----7----4----3----2------------------|
E|--0----0----5--------0----0----5----x----5----x----x----x------------------|


Repeat Verse x4

Repeat chorus x2

Solo x2

e|---------------------------------------------------------------------------|
B|---------------------------------------------------------------------------|
G|-----4--4-----4--4--------------4--4--------------4--4---------------------|
D|--2--------0-----------4--4--2-----------5--5--0-----------5--5-----4--4---|
A|--------------------2-----------------3-----------------3--------2---------|
E|---------------------------------------------------------------------------|

Bridge

e|--x----x----x----x----x----x----0----0----0----0---------------------------|
B|--x----x----x----x----x----x----0----0----0----0---------------------------|
G|--7----4----7----4----3----4----6----4----6----4---------------------------|
D|--7----4----7----4----4----4----7----4----7----4---------------------------|
A|--5----2----5----2----4----2----7----2----7----2---------------------------|
E|--x----0----x----0----2----0----5----0----5----0---------------------------|

Repeat chorus x1

    E    B    A        E    B    A    C#m  A    C#m  A    C#m  C    B

e|--0----0----0--------0----0----0----0----0----0----0----0----x----x--------|
B|--0----0----0--------0----0----0----5----0----5----0----5----x----x--------|
G|--1----4----6--------1----4----6----6----6----6----6----6----5----4--------|
D|--2----4----7--------2----4----7----6----7----6----7----6----5----4--------|
A|--2----2----7--------2----2----7----4----7----4----7----4----3----2--------|
E|--0----0----5--------0----0----5----x----5----x----5----x----x----x--------|

Repeat Guitar Intro x2


| /  slide up
| \  slide down
| h  hammer-on
| p  pull-off
| ~  vibrato
| +  harmonic
| x  Mute note
===============================================================================

            
            
Suggest correction
Creating personal tab
Creating personal tab
You can edit any tab online and save it as your Personal.

You can edit, replace or remove any tab part or add personal notes – all changes will be seen only by you.

Personal tabs can be accessed anytime from any device, even offline.
Learn more »
comments
print report bad tab
3 comments total.
0 reply
ippy 30 Mar 04, 2004 07:00 PM

I noticed a few mistakes in my tab.

First of all the song is from the album "New Way to be Human" NOT "Meant to Live."

Second, in the guitar intro I made a mistake. It should be:


Guitar Intro x2

e|-------------------------0-------------------------------------------------|
B|-------------------3--------0--1/3--3--3--1p-------------------------------|
G|-------0--------4-----4-----------------------2/4--2p--------0-------------|
D|-2--------5--------------------------------------------2--4-----4--2--1--2-|
A|----2--------5-------------------------3---------------3-------------------|
E|-0--------3--------2--------0--------------------------------------------0-|

I think that's it.

0 reply
Ballrooms 129 Jan 28, 2010 01:05 PM

As far as I'm concerned this is the best tab out there for this song.

+2 reply
!Slash12! 10 Feb 03, 2010 08:48 AM

very nice tab...
but i'd say the last two notes in the verse are both on the 4th fret = Fsharp and B

guest
You may want to rate the tab now too:
select rating
Wanna post a correction for this tab? Suggest correction