Oops, an error
Loading. Please wait.

Only Hope tab

version 11
6,098 views 9 this week
3 commentsread comments
1 2 3 4 5
x 6
add to favorites
×
Save as Personal and add changes to this tab that will be seen only by you. Learn more ›
×
You can save this tab as Personal to edit and correct it or add notes. All changes will be seen only by you. Learn more »
launch autoscroll
font size
0
reset
how to read this tab
guitar tuner
edit
Autoscroll
slow
fast
+/-
esc
set tempo
stop
Author
Only hope by Switchfoot Acoustic

Tabber: Nhikko Lorenzzi Lacambra
Friendster: nhikko_lorenzzi@yahoo.com
Band: C minor
Band Members :
 Lead: Nhikko Lorenzzi Lacambra
 Rhythm Vocals: Karl Adrian Gutierrez
 Bass: Edwin Amante Jr.
 Drummer: Moises Jonathan Libit

Standard Tuning  (EADGBe)


Chords used:
E   (x79900)
Em7 (x79800)
Em  (022000)
A9  (x02200)
A   (577000)
C#m7(x46454)
C9  (x32033)
Bm  (x24400)
B   (x24442)
D   (x02320)
Fm  (244xxx)



Intro:

e|----------------|-----------|----------|--------------------|
B|----------------|-----------|----------|--------------------|
G|-----------7~---|-/777-5-4--|----------|--------------------|
D|-------5~-------|-----------|-7-5-4----|--------------------|
A|--/7~-----------|-----------|----------|-5-7-7/8-7--5-4pause|
E|----------------|-----------|----------|--------------------|


e|----------------|-----------|---------------|-------------|
B|----------------|-----------|---------------|-------------|
G|----------7-----|-----------|---------------|-------------|
D|-------5-----5--|------5----|----------7----|-------2-----|
A|--3/7-----------|----5---5--|-------5----5--|----2----2---|
E|----------------|-3---------|--3/7----------|--0----------|

e|----------------|------------|----------------|--------------|
B|----------3-----|--------3---|---------3------|--------------|
G|------------0---|---------0--|------------0---|--------4-----|
D|-------2--------|------------|-----2----------|-----4----4---|
A|--2/3-----------|----2-------|--3-------------|--2-----------|
E|----------------|-3----------|----------------|--------------|x1




Verse I:

e|----------------|-----------|---------------|-------------|
B|----------------|-----------|---------------|-------------|
G|----------7-----|-----------|---------------|-------------|
D|-------5-----5--|-------5---|----------7----|-------2-----|
A|--3/7-----------|----5----5-|-------5----5--|----2----2---|
E|----------------|-3---------|--3/7----------|--0----------|

e|----------------|------------|----------------|--------------|
B|----------3-----|--------3---|---------3------|--------------|
G|------------0---|---------0--|------------0---|--------4-----|
D|-------2--------|------------|-----2----------|-----4-----4--|
A|--2/3-----------|----2-------|--3-------------|--2-----------|
E|----------------|-3----------|----------------|--------------|

(4 times all of the above)



Chorus:

Strumming…

        E     Ema7       A9
  So I lay my head back down,
        E      Ema7
  And I lift my hands and
   A9          C#m7
  Pray to be only yours,
    A9          C#m7
  I pray to be only yours,
    C9                Bm
  I know now you’re my only hope


Interlude:

e|----------------|-----------|---------------|-------------|
B|----------------|-----------|---------------|-------------|
G|----------7-----|-----------|---------------|-------------|
D|-------5-----5--|-------5---|----------7----|-------2-----|
A|--3/7-----------|----5----5-|-------5----5--|----2----2---|
E|----------------|-3---------|--3/7----------|--0----------|

  
e|----------------|------------|----------------|-------------|
B|----------3-----|--------3---|----------3-----|-------------|
G|------------0---|---------0--|-------------0--|--------4----|
D|-------2--------|------------|-------2--------|-----4----4--|
A|--2/3-----------|----2-------|--2/3-----------|--2----------|
E|----------------|-3----------|----------------|-------------|x1



Verse II:

Same as Verse I



Chorus:

Strumming…


        E     Ema7       A9
  So I lay my head back down,
        E      Ema7
  And I lift my hands and
   A9          C#m7
  Pray to be only yours,
    A9          C#m7
  I pray to be only yours,
    C9                Bm
  I know now you’re my only hope


Adlib:


e|-----------|---------------|----------|------------|
B|-----------|---------------|----------|------------|
G|------9-9--|------12---12--|-----9-9--|-----9-9----|
D|------9-9--|------12-12----|-----9-9--|-----9-9----|
A|--7--------|--10-----------|----------|--7---------|
E|-----------|---------------|--7-------|------------|

e|--------------|--------------|------------|---------|
B|--------------|--------------|------------|---------|
G|--------------|------12--12--|------------|---------|
D|-----10-10----|------12--12--|-----10-10--|----9-9--|
A|-----10-10----|--10----------|-----10-10--|----9-9--|
E|--8-----------|--------------|--8---------|--7------|x2



Bridge:
D               Em
  I’ll give you my apathy,
D                Em
  I’m giving you all of me.
D              Em
  I want your symphony,
 Fm                  B
  Singing in all that I am.
        A                 B
  At the top of my lungs,
      A                   B
  I’m giving it back.___


Chorus:

Strumming…

        E       B       A9
  So I lay my head back down,
        E       B
  And I lift my hands and
   A          C#m7
  Pray to be only yours,
    A          C#m7
  I pray to be only yours,
    C9                Bm
  I know now you’re my only hope

  end at E.




-I’ll hope you’ll liked it-
-Please Rate It-

            
            
Suggest correction
Creating personal tab
Creating personal tab
You can edit any tab online and save it as your Personal.

You can edit, replace or remove any tab part or add personal notes – all changes will be seen only by you.

Personal tabs can be accessed anytime from any device, even offline.
Learn more »
comments
print report bad tab
3 comments total.
+1 reply
tabhunter123 10 May 10, 2009 06:15 AM

best tab for only hope^^

0 reply
slash_hero16 10 May 15, 2009 05:25 AM

thnks for this tab

0 reply
Henslinatr 10 Sep 03, 2010 03:49 AM

Fm should be F#7

B, not Emaj7 on the chorus

guest
You may want to rate the tab now too:
select rating
Wanna post a correction for this tab? Suggest correction