Oops, an error
Loading. Please wait.

Rise Above It bass

714 views 1 this week
no commentswrite comment
1 2 3 4 5
x 3
add to favorites
×
Save as Personal and add changes to this tab that will be seen only by you. Learn more ›
×
You can save this tab as Personal to edit and correct it or add notes. All changes will be seen only by you. Learn more »
launch autoscroll
font size
0
reset
guitar tuner
edit
Autoscroll
slow
fast
+/-
esc
set tempo
stop
Author
Difficulty
-----------------------------------------------------------------------------
                              RISE ABOVE IT               SWITCHFOOT
-----------------------------------------------------------------------------

Tabbed by:hurricaneherman
Tuning:Standard E-A-D-G

NOTE: There are no notes on the first or second fret so if you see those they
are really 12's.

~INTRO~

E|----------------------------------------------------------------|
A|----------------------------------------------------------------|
D|----------------------------------------------------------------|
G|--------------------------7-7-7-9---------7-7-7-9---------7-7-7-|

~VERSE~

E|----------------------------------------------------------------|
A|----------------------------------------------------------------|
D|----------------------------------------------------------------|
G|9---------------------------------------------------------------|
            Another couple kids with their heads on top,
              Just another stranger just another plot,

E|----------------------------------------------------------------|
A|----------------------------------------------------------------|
D|----------------------------------------------------------------|
G|----------------------------------------------------------7-7-7-|
          Another track home where the city streets stop
             Just another kid with another bored cop

E|----------------------------------------------------------------|
A|----------------------------------------------------------------|
D|----------------------------------------------------------------|X2
G|9---9-7h9---12--9---7-7-9---9---9---9-7h9---12--9---7-7-9---9---|
Just another lemon into lemonade job Just another rust and dust facade
Just another key stuck broken in the lock just another scarecrow choking on a
                          Cough oh come on

~CHORUS~

E|----------------------------------------------------------------|
A|----------------------------------------------------------------|
D|----------------------------------------------------------------|
G|12--1212--12--12--12--12--1212127---7-7---7---7---7---7---7-7-7-|
       It feels so typical guess I'm looking for a miracle

E|----------------------------------------------------------------|
A|----------------------------------------------------------------|
D|----------------------------------------------------------------|
G|9---9-7h9---12--9---7-7-9---9---9---9-7h9---12--9---7-7-9---9---|
                   Rise above it rise above it

E|----------------------------------------------------------------|
A|----------------------------------------------------------------|
D|----------------------------------------------------------------|
G|12--1212--12--12--12--12--1212127---7-7---7---7---7---7---7-7-7-|
I don't care what they're telling me we could be what we want to be

E|----------------------------------------------------------------|
A|----------------------------------------------------------------|
D|----------------------------------------------------------------|
G|9---9-7h9---12--9---7-7-9---9---9---9-7h9---12--9---7-7-9---9---|
                    Rise above it rise above it

~VERSE~

E|----------------------------------------------------------------|
A|----------------------------------------------------------------|
D|----------------------------------------------------------------|
G|9---------------------------------------------------------9-9-9-|
Listen up loud listen up listen here just because you're running doesn't mean
                        that you're scared

E|----------------------------------------------------------------|
A|----------------------------------------------------------------|
D|----------------------------------------------------------------|
G|7-------------------------7-7-7-9-------------------------121212|
Just because it's law doesn't mean that it's fair never let another tell
                       your soul what to fear

E|----------------------------------------------------------------|
A|----------------------------------------------------------------|
D|----------------------------------------------------------------|X2
G|9---9-7h9---12--9---7-7-9---9---9---9-7h9---12--9---7-7-9---9---|
Here we go again give it one more try don't believe the system's om your
                                 side
Just another lover turned enemy fight just another blood and nicotine sky
                               Oh come on 

~CHORUS~

E|----------------------------------------------------------------|
A|----------------------------------------------------------------|
D|----------------------------------------------------------------|
G|12--1212--12--12--12--12--1212127---7-7---7---7---7---7---7-7-7-|
       It feels so typical guess I'm looking for a miracle

E|----------------------------------------------------------------|
A|----------------------------------------------------------------|
D|----------------------------------------------------------------|
G|9---9-7h9---12--9---7-7-9---9---9---9-7h9---12--9---7-7-9---9---|
                   Rise above it rise above it

E|----------------------------------------------------------------|
A|----------------------------------------------------------------|
D|----------------------------------------------------------------|
G|12--1212--12--12--12--12--1212127---7-7---7---7---7---7---7-7-7-|
         I get so sick of it it feels so counterfeit

E|----------------------------------------------------------------|
A|----------------------------------------------------------------|
D|----------------------------------------------------------------|
G|9---9-7h9---12--9---7-7-9---9---9---9-7h9---12--9---7-7-9---9---|
                    Rise above it rise above it

~INTERLUDE~

E|----------------------------------------------------------------|
A|----------------------------------------------------------------|
D|----------------------------------------------------------------|
G|9-------------------------7-7-7-9-------------------------7-7-7-|

E|----------------------------------------------------------------|
A|----------------------------------------------------------------|
D|----------------------------------------------------------------|
G|9-------------------------7-7-7-9-------------------------9-\---|

~BRIDGE~

E|----------------------------------------------------------------|
A|----------------------------------------------------------------|
D|----------------------------------------------------------------|
G|5-5-5-5-5-5-5-5-5-5-5-5-5-5-5-5-7-7-7-7-7-7-7-7-7-7-7-7-7-7-7-7-|
            Hear our voices cry hear our battle cry

E|----------------------------------------------------------------|
A|----------------------------------------------------------------|
D|----------------------------------------------------------------|
G|9-9-9-9-9-9-9-9-9-9-9-9-9-9-9-9-5-5-5-5-5-5-5-5-5-5-5-5-5-5-5-5-|
       We've been under the curse with our arms raised high

E|----------------------------------------------------------------|
A|----------------------------------------------------------------|
D|----------------------------------------------------------------|
G|7-7-7-7-7-7-7-7-7-7-7-7-7-7-7-7-9-9-9-9-9-9-9-9-9-9-9-9-9-9-9-9-|
       Hear us sing tonight like the last night of our lives

E|----------------------------------------------------------------|
A|----------------------------------------------------------------|
D|----------------------------------------------------------------|
G|5-5-5-5-5-5-5-5-5-5-5-5-5-5-5-5-7-7-7-7-7-7-7-7-7-7-7-7-7-7-7-7-|
                    We will rise like the tide

E|----------------------------------------------------------------|
A|----------------------------------------------------------------|
D|----------------------------------------------------------------|
G|9-9-9-9-9-9-9-9-9-9-9-9-9-9-9-9-12121212121212121212121212121212|
                 Like dead men coming back to life

E|----------------------------------------------------------------|
A|----------------------------------------------------------------|
D|----------------------------------------------------------------|
G|5-5-5-5-5-5-5-5-5-5-5-5-5-5-5-5-7-7-7-7-7-7-7-7-7-7-7-7-7-7-7-7-|
                        We are rising rising

~VERSE~

No bass.

Turn it up now listen loud and clear,
Just because you're present doesn't mean that you're here,
Oh come on,

~CHORUS~

E|----------------------------------------------------------------|
A|----------------------------------------------------------------|
D|----------------------------------------------------------------|
G|12--1212--12--12--12--12--1212127---7-7---7---7---7---7---7-7-7-|
       It feels so typical guess I'm looking for a miracle

E|----------------------------------------------------------------|
A|----------------------------------------------------------------|
D|----------------------------------------------------------------|
G|9---9-7h9---12--9---7-7-9---9---9---9-7h9---12--9---7-7-9---9---|
                   Rise above it rise above it

E|----------------------------------------------------------------|
A|----------------------------------------------------------------|
D|----------------------------------------------------------------|
G|12--1212--12--12--12--12--1212127---7-7---7---7---7---7---7-7-7-|
            The curse is spoken the system's broken

E|----------------------------------------------------------------|
A|----------------------------------------------------------------|
D|----------------------------------------------------------------|
G|9---9-7h9---12--9---7-7-9---9---9---9-7h9---12--9---7-7-9---9---|
                  Rise above it rise above it


E|----------------------------------------------------------------|
A|----------------------------------------------------------------|
D|----------------------------------------------------------------|
G|12--1212--12--12--12--12--1212127---7-7---7---7---9---9---7---7-|
             Lets rise above it we can rise above it

E|----------------------------------------------------------------|
A|----------------------------------------------------------------|
D|----------------------------------------------------------------|
G|9---9-7h9---12--9---7-7-9---9---9---9-7h9---12--9---7-7-9---9---|
                        Rise above it yeah


E|----------------------------------------------------------------|
A|----------------------------------------------------------------|
D|----------------------------------------------------------------|
G|12--1212--12--12--12--12--1212127---7-7---7---7---7---7-7-7-7-7-|
                   Rise above it rise above it

E|----------------------------------------------------------------|
A|----------------------------------------------------------------|
D|----------------------------------------------------------------|
G|9---------------------------------------------------------------|

=============================================================================
h = hammer on
\ = slide down

If you find anything wrong with this tab please leave a comment so I can fix it for you.

Peace, Love, I'm out.

            
            
Suggest correction
Creating personal tab
Creating personal tab
You can edit any tab online and save it as your Personal.

You can edit, replace or remove any tab part or add personal notes – all changes will be seen only by you.

Personal tabs can be accessed anytime from any device, even offline.
Learn more »
Give kudos to tab author, rate the tab!
1 2 3 4 5
comments
print report bad tab
guest
You may want to rate the tab now too:
select rating
Wanna post a correction for this tab? Suggest correction