Oops, an error
Loading. Please wait.

The Original bass

version 1
version 1

Whole song

Interactive

1,225 views 6 this week
1 commentread comment
1 2 3 4 5
1 last vote to show rating
add to favorites
×
Save as Personal and add changes to this tab that will be seen only by you. Learn more ›
×
You can save this tab as Personal to edit and correct it or add notes. All changes will be seen only by you. Learn more »
launch autoscroll
font size
0
reset
guitar tuner
edit
Autoscroll
slow
fast
+/-
esc
set tempo
stop
Author
Song: The Original
Artist: Switchfoot
Album: Vice Verses

Like many Switchfoot songs, this one has a pretty fun bass line once you
get the hang of it. Just listen for the timing and off beats here
and there.

Note: All 11= eleven and 12= twelve

Intro:
Come in at 0:12

G----------------------------------------------|
D----------------------------------------------|
A----------------------------------------------|
E----8--8-8--8-11--6-6--6-8--8-8--8-11--6-6----|
             eleven


G--------------------------------------|
D--------------------------------------|
A---------11-11-11-11--6-6-------------| 2x
E----8-8--------------------6-6-6-6----|


Verse: "Got your hands in your pockets"

G---------------------------------------|
D------10--10-10-----10--10-------------|
A---------------------------------------| 6x
E----8-------8--8-11-------6-6-7-(8)----|
                          This 8 is the start of the repeat

Pre-Chorus: "Speak your mind up, come on baby free yourself"


G-------------------------------------|
D-------------------------------------|
A---------/11--11-11-11-11-11-11-8----|
E----6-6-4----------------------------|


Chorus: "No one to do it, free yourself"


G-----------------------------------|
D--------------------------8-10-8---|
A------------------8--8--8----------| 3x
E----8--8--6-6-6-6------------------|

Play this after the third time

G------------------------------|
D------------------------------|
A----11--11--11-11-11-11-11----|
E------------------------------|

Play 1st part of intro as post-chorus


Verse: "So you say you're just a lost soul"

G-------------------|
D-------------------|
A-------------------| 4x then play the normal verse
E--------6-6-7-8----|


Pre-Chorus


Chorus


2nd part of intro 4x


1st part of intro



During guitar solo:
         don't play the tens 1st time
G----------------------------------|
D-------------10-------------------|
A-----------10--10-----------------| 3x
E---/8--8--8-------11--11--6--6----|

G------------------------|
D------------------------|
A----8--8--11--11--10----| hold last note then
E------------------------| slide into chorus


Chorus 7x


1st Part of intro


End with this:

G---------------|
D---------------|
A---------------|
E----6-6-7-8----|

That's about it. It should be pretty close, but let me know
if any corrections need to be made. Thanks for looking, God bless :)

            
            
Suggest correction
Creating personal tab
Creating personal tab
You can edit any tab online and save it as your Personal.

You can edit, replace or remove any tab part or add personal notes – all changes will be seen only by you.

Personal tabs can be accessed anytime from any device, even offline.
Learn more »
Give kudos to tab author, rate the tab!
1 2 3 4 5
comments
print report bad tab
1 comment total.
0 reply
Caleb_Lopez760 19 Jul 22, 2016 10:05 AM

Very clear tab thanks!

guest
You may want to rate the tab now too:
select rating
Wanna post a correction for this tab? Suggest correction