Oops, an error
Loading. Please wait.

The Sound tab

version 1
version 1

Whole song

Interactive

19,789 views 6 this week
no commentswrite comment
1 2 3 4 5
x 5
add to favorites
×
Save as Personal and add changes to this tab that will be seen only by you. Learn more ›
×
You can save this tab as Personal to edit and correct it or add notes. All changes will be seen only by you. Learn more »
launch autoscroll
font size
0
reset
how to read this tab
guitar tuner
edit
Autoscroll
slow
fast
+/-
esc
set tempo
stop
Switchfoot
The Sound
Hello Hurricane -- 2009

Tuning - Drop D (D A d G B E)

Intro: Part 1 (Only when played live)
Guitar 1
E|----------------------------12~-----14~--|
B|--11~-10~----11~----10~-11~-----10~------|
G|----------12-----11----------------------|
d|-----------------------------------------|
A|-----------------------------------------|
D|-----------------------------------------|

E|-------------------12~-----14~-------------|
B|-----11~---10~-11~-----10~--------11~-10~--|
G|--12----11---------------------12------9~--|
d|---------------------------------------7~--|
A|-------------------------------------------|
D|-------------------------------------------|

Guitar 2 (Palm Muted)
E|-----------------|
B|-----------------|
G|-----------------|
d|-----------------|
A|-----------------|
D|--0-0-0-0-0-0-0--|

Intro: Part 2 (Palm Muted) [Album Version starts here]
Guitar 1 & 2
E|----------------------------------------|
B|----------------------------------------|
G|----------------------------------------|
d|----------------------------------------|[2x]
A|----------------------------------------|
D|--0-0-0-0-0-0-0-^10--0-0-0-0-0-0-0-^10--|

V1 (Intro: Part 2)
The static comes in slow
You can feel it grow
Our stream of conscience flows
Under the streets below

V1: Interlude (Don't Palm Mute)
Whoa, whoa-o, whoa, whoa-o

The rivers made of sound
Still running underground
Runs like a silent flood
We run as thick as blood

Pre-Chorus 1
    Can you hear it rise?  Up from the ground
E|---------------------------------------------|
B|---------------------------------------------|
G|------------------10-----------------5-------|
d|-------------------8-[8x]------------3-[8x]--|
A|-------------------8-----------------3-------|
D|-------------------8-----------------3-------|

    Can't drown it out?  Can you hear it now?
E|-----------------------------------------------|
B|-----------------------------------------------|
G|-----------------10--------------------7-------|
d|------------------8-[8x]---------------5-[8x]--|
A|------------------8--------------------5-------|
D|------------------8--------------------5-------|

Chorus
    This is the sound of a heartbeat
E|---------------------------------|
B|---------------------------------|
G|---------------------------------|
d|--------------0-----x----0----x--|
A|--------------0-----x----0----x--|
D|--------------0-----x----0----x--|

    This is the sound from the discontented mouths
E|---------------------------------------------------|
B|---------------------------------------------------|
G|------------------------------------------10-------|
d|--------------0----x---------0-----x-------8-[8x]--|
A|--------------0----x---------0-----x-------8-------|
D|--------------0----x---------0-----x-------8-------|

Of a haunted nation! We are the voice of breaking
E|---------------------------|
B|---------------------------|
G|-------------------7-------|
d|-------------------5-[8x]--|
A|-------------------5-------|
D|-------------------5-------|
(REPEAT CHORUS CHORDS)
Down!  Can you hear me?
This is the sound of the desperation bound
By our own collision
We are the voice of breaking down

Keyboard to Guitar (1:17), (1:27), (2:22), (2:23), (3:08) & (3:18)
E|-----------|
B|--3/13\10--|
G|-----------|
d|-----------|
A|-----------|
D|-----------|
NOTE: Listen to picking... very fast!

Interlude: Same as Intro: Part 2 (Don't Palm Mute)

V2 (Same as V1)
The static comes alive
Beneath the broken skies
John Perkins said it right
Love is the final fight

Pre-Chorus 2
Let it rise above
Rise above
There is no song
Louder than love

Chorus

Bridge - Intro: Part 2 (No Palm Mute)

Pre-Chorus 2

Chorus

Outro (Intro: Part 2 -- No Palm Mute/Double time!)

            
            
Suggest correction
Creating personal tab
Creating personal tab
You can edit any tab online and save it as your Personal.

You can edit, replace or remove any tab part or add personal notes – all changes will be seen only by you.

Personal tabs can be accessed anytime from any device, even offline.
Learn more »
comments
print report bad tab
guest
You may want to rate the tab now too:
select rating
Wanna post a correction for this tab? Suggest correction