Oops, an error
Loading. Please wait.

Harry Dean tab

by Swmrs
3,325 views 39 this week
2 commentsread comments
1 2 3 4 5
x 5
add to favorites
×
Save as Personal and add changes to this tab that will be seen only by you. Learn more ›
×
You can save this tab as Personal to edit and correct it or add notes. All changes will be seen only by you. Learn more »
launch autoscroll
font size
0
reset
how to read this tab
guitar tuner
edit
Autoscroll
slow
fast
+/-
esc
set tempo
stop
Harry Dean by Swmrs 

Album: Drive North

This tab only contains the rhythm guitar (If anyone wants to contribute the solo please feel free) apart from
the intro and some of the second verse, which are played as part of the lead.
Please comment any corrections/suggestions below.

Intro (Lead)

e|------------6-------------------6-------|
B|---8----8-----8--6--8--8--8--8----8-6---|
G|----------------------------------------|  x6
D|----------------------------------------|
A|----------------------------------------|
E|----------------------------------------|

e|------------6-------------------6----------------6-------------------------|
B|---8----8-----8--6--8--8--8--8----8--6--8----8-----8--6--------------------|
G|---------------------------------------------------------------------------|
D|---------------------------------------------------------------------------|
A|---------------------------------------------------------------------------|
E|---------------------------------------------------------------------------|

Intro (Rhythm) Start playing after the lead 
e|----------------------------------|---|------------------------------------|
B|---8----8-----------8--8--8--8----|---|-8----8-----------------------------|
G|----------------------------------|-x4|------------------------------------|
D|----------------------------------|---|------------------------------------|
A|----------------------------------|---|------------------------------------|
E|----------------------------------|---|------------------------------------|

Pre-Verse

e|---------------------------------------------------------------------------|
B|---------------------------------------------------------------------------|
G|----------------------5----------------------------------------------------| x2
D|-5--5--5-5-5-5--5-5-5-5--3-------------------------------------------------|
A|-5--5--5-5-5-5--5-5-5-3--3-------------------------------------------------|
E|-3--3--3-3-3-3--3-3-3----1-------------------------------------------------|

e|---------------------------------------------------------------------------|
B|---------------------------------------------------------------------------|
G|---------------------------------------------------------------------------| 
D|-5--5--5-5-5-5--5-5-5-3--3-------------------------------------------------|
A|-5--5--5-5-5-5--5-5-5-3--3-------------------------------------------------|
E|-3--3--3-3-3-3--3-3-3-1--1-------------------------------------------------|

e|---------------------------------------------------------------------------|
B|---------------------------------------------------------------------------|
G|----------------------5----------------------------------------------------| 
D|-5--5--5-5-5-5--5-5-5-5--3-------------------------------------------------|
A|-5--5--5-5-5-5--5-5-5-3--3-------------------------------------------------|
E|-3--3--3-3-3-3--3-3-3----1-------------------------------------------------|

Verse (All x2)

e|---------------------------------------------------------------------------|
B|---------------------------------------------------------------------------|
G|----------------------5----------------------------------------------------| x2
D|-5--5--5-5-5-5--5-5-5-5--3-------------------------------------------------|
A|-5--5--5-5-5-5--5-5-5-3--3-------------------------------------------------|
E|-3--3--3-3-3-3--3-3-3----1-------------------------------------------------|

e|---------------------------------------------------------------------------|
B|---------------------------------------------------------------------------|
G|---------------------------------------------------------------------------| 
D|-5--5--5-5-5-5--5-5-5-3--3-------------------------------------------------|
A|-5--5--5-5-5-5--5-5-5-3--3-------------------------------------------------|
E|-3--3--3-3-3-3--3-3-3-1--1-------------------------------------------------|

e|---------------------------------------------------------------------------|
B|---------------------------------------------------------------------------|
G|----------------------5----------------------------------------------------| 
D|-5--5--5-5-5-5--5-5-5-5--3-------------------------------------------------|
A|-5--5--5-5-5-5--5-5-5-3--3-------------------------------------------------|
E|-3--3--3-3-3-3--3-3-3----1-------------------------------------------------|

Pre-Chorus

e|---------------------------------------------------------------------------|
B|---------------------------------------------------------------------------|
G|----------------------5----------------------------------------------------| 
D|-5--5--5-5-5-5--5-5-5-5--3-------------------------------------------------| x3
A|-5--5--5-5-5-5--5-5-5-3--3-------------------------------------------------|
E|-3--3--3-3-3-3--3-3-3----1-------------------------------------------------|

e|---------------------------------------------------------------------------|
B|---------------------------------------------------------------------------|
G|-7-7-7-7-7-7-7-7-7-7-7-7-7-7-7-7-------------------------------------------|
D|-7-7-7-7-7-7-7-7-7-7-7-7-7-7-7-7-------------------------------------------|
A|-5-5-5-5-5-5-5-5-5-5-5-5-5-5-5-5-------------------------------------------|
E|---------------------------------------------------------------------------|

Chorus 

e|---------------------------------------------------------------------------|
B|---------------------------------------------------------------------------|
G|---------------------------------4-4-4-4-4-4-4-4-5-5-5-5-5-5-5-5-----------| x2
D|-5-5-5-5-5-5-5-5-7-7-7-7-7-7-7-7-4-4-4-4-4-4-4-4-5-5-5-5-5-5-5-5-----------|
A|-5-5-5-5-5-5-5-5-7-7-7-7-7-7-7-7-2-2-2-2-2-2-2-2-3-3-3-3-3-3-3-3-----------|
E|-3-3-3-3-3-3-3-3-5-5-5-5-5-5-5-5-------------------------------------------|

e|---------------------------------------------------------------------------|
B|---------------------------------------------------------------------------|
G|----------------------5----------------------------------------------------| 
D|-5--5--5-5-5-5--5-5-5-5--3-------------------------------------------------| x3
A|-5--5--5-5-5-5--5-5-5-3--3-------------------------------------------------|
E|-3--3--3-3-3-3--3-3-3----1-------------------------------------------------|

Verse 2
No rhythm guitar in this verse until the C and F power chords at the end, but the lead plays this after Cole 
sings "I wanna be your riot girl" 

Lead

e|---------------------------------------------------------------------------|
B|---------------------------------------------------------------------------|
G|--------3---------------3--------------------------------------------------|
D|-5---5----5-3--5-5-5-5----5-3----------------------------------------------| x4
A|---------------------------------------------------------------------------|
E|---------------------------------------------------------------------------|

Rhythm (after the lead is played through, this leads into the pre-chorus)

e|---------------------------------------------------------------------------|
B|---------------------------------------------------------------------------|
G|--------------------------5------------------------------------------------|
D|--------------------------5-3----------------------------------------------|
A|--------------------------3-3----------------------------------------------|
E|----------------------------1----------------------------------------------|

Pre-Chorus

e|---------------------------------------------------------------------------|
B|---------------------------------------------------------------------------|
G|----------------------5----------------------------------------------------| 
D|-5--5--5-5-5-5--5-5-5-5--3-------------------------------------------------| x3
A|-5--5--5-5-5-5--5-5-5-3--3-------------------------------------------------|
E|-3--3--3-3-3-3--3-3-3----1-------------------------------------------------|

e|---------------------------------------------------------------------------|
B|---------------------------------------------------------------------------|
G|-7-7-7-7-7-7-7-7-7-7-7-7-7-7-7-7-------------------------------------------|
D|-7-7-7-7-7-7-7-7-7-7-7-7-7-7-7-7-------------------------------------------|
A|-5-5-5-5-5-5-5-5-5-5-5-5-5-5-5-5-------------------------------------------|
E|---------------------------------------------------------------------------|

Chorus

e|---------------------------------------------------------------------------|
B|---------------------------------------------------------------------------|
G|---------------------------------4-4-4-4-4-4-4-4-5-5-5-5-5-5-5-5-----------| x2
D|-5-5-5-5-5-5-5-5-7-7-7-7-7-7-7-7-4-4-4-4-4-4-4-4-5-5-5-5-5-5-5-5-----------|
A|-5-5-5-5-5-5-5-5-7-7-7-7-7-7-7-7-2-2-2-2-2-2-2-2-3-3-3-3-3-3-3-3-----------|
E|-3-3-3-3-3-3-3-3-5-5-5-5-5-5-5-5-------------------------------------------|

e|---------------------------------------------------------------------------|
B|---------------------------------------------------------------------------|
G|----------------------5----------------------------------------------------| 
D|-5--5--5-5-5-5--5-5-5-5--3-------------------------------------------------| x3
A|-5--5--5-5-5-5--5-5-5-3--3-------------------------------------------------|
E|-3--3--3-3-3-3--3-3-3----1-------------------------------------------------|

Solo Rhythm and outro (Again, if anyone has a tab for the solo, don't hesitate to get in touch)

e|---------------------------------------------------------------------------|
B|---------------------------------------------------------------------------|
G|----------------------5----------------------------------------------------| 
D|-5--5--5-5-5-5--5-5-5-5--3-------------------------------------------------| x11
A|-5--5--5-5-5-5--5-5-5-3--3-------------------------------------------------|
E|-3--3--3-3-3-3--3-3-3----1-------------------------------------------------|

End on

e|----|
B|----|
G|----|
D|-5~-|
A|-5~-|
E|-3~-|

************************************

| x   Dead note
| g   Grace note
| (n) Ghost note
| h   Hammer-on
| p   Pull-off
| r   Release
| >   Accented note
| t   Tapping
| b   Bend
| br  Bend release
| pb  Pre-bend
| pbr Pre-bend release
| /   Slide up
| \   Slide down
| ~   Vibrato/Let note ring out
| s   Slap
| P   Pop
| PM  Palm mute
| TR  Trill
| N   Tremolo

************************************

            
            
Suggest correction
Creating personal tab
Creating personal tab
You can edit any tab online and save it as your Personal.

You can edit, replace or remove any tab part or add personal notes – all changes will be seen only by you.

Personal tabs can be accessed anytime from any device, even offline.
Learn more »
comments
print report bad tab
2 comments total.
0 reply
dimitrisroom20 30 Mar 25, 2016 12:43 AM

Finally a tab on this song :D

0 reply
jsvens805 20 Nov 03, 2016 02:10 AM

Pretty sure the intro has this slight change
e|------------6-------------------6-------|
B|---8----8-----8--6--8--8--8--8----8-6---|
G|----------------------------------------| x6
D|----------------------------------------|
A|----------------------------------------|
E|----------------------------------------|

guest
You may want to rate the tab now too:
select rating
Wanna post a correction for this tab? Suggest correction