Oops, an error
Loading. Please wait.

Make It Hurt tab

1,174 views 12 this week
1 commentread comment
1 2 3 4 5
x 4
add to favorites
×
Save as Personal and add changes to this tab that will be seen only by you. Learn more ›
×
You can save this tab as Personal to edit and correct it or add notes. All changes will be seen only by you. Learn more »
launch autoscroll
font size
0
reset
how to read this tab
guitar tuner
edit
Autoscroll
slow
fast
+/-
esc
set tempo
stop
Concerens? Let me know!

I Did not have a choice for the Tab to pick drop G.

If you would like to see a Guitar cover of this song. Please, Go straight to my youtube. ^.^


- MeadowcanMUSICTIME

                                                                        
Tuning: Drop G

.:HEALTHY RECOMMENDION - It would sound alot better with heavyer gauge strings:.

[Intro]

A|-----------------------------------------------------------------------------------------------|
E|-----------------------------------------------------------------------------------------------|
C|-----------------------------------------------------------------------------------------------|
G|-----------------------------------------------------------------------------------------------|
D|--------0-3-1~----1-0-0-------0-0----------------0--0----0-1---1-0-0---0-3-1~----1-x-0~--------|
G|--------0-3-1~----1-0-0-------0-0----------X-X-X-0--0----0-1---1-0-0---0-3-1~----1-x-0~--------|

A|-------------------------------------------------------------------------|
E|-------------------------------------------------------------------------|
C|-------------------------------------------------------------------------|
G|-------------------------------------------------------------------------|
D|-----------------0--0-------1----1--0-0----0-3-1~----1-1--0-0------------|
G|---0-0--0-0------0--0-----0-1----1--0-0----0-3-1~----1-1--0-0------------|

[CHORUS 1]:

A|--------------------------------------------------------------------------------|
E|--------------------------------------------------------------------------------|
C|---------------------------------------------------------------7s9-9-9----------|
G|--------------------------------------------------------------------------------| x2
D|---0-0-0-0-0-0-0-0-6-6-6-6-6-6-6-6-5-5-5-5-5-5-5-5-5-5-5-5-5-5------------------|
G|---0-0-0-0-0-0-0-0-6-6-6-6-6-6-6-6-5-5-5-5-5-5-5-5-5-5-5-5-5-5------------------|
              ------  

A|---------------------------------------------------------------------------------|
E|---------------------------------------------------------------------------------|
C|---------------------------------------------------------------------------------|
G|------------0--------------------------------------------------------------------|
D|--0-0-0-0-0-0--6-6-6-6-6-6-6-6-5-5-5-5-5-5-5-5-5-5-5-5-5-5-5-5-------------------|
G|--0-0-0-0-0-0--6-6-6-6-6-6-6-6-5-5-5-5-5-5-5-5-5-5-5-5-5-5-5-5-------------------|
PM-----------

A|--------------------------------------------------|
E|--------------------------------------------------|
C|--------------------------------------------------|
G|----------0-0-0-0------------------5~-------------|
D|--0-0-0-0-0-0-0-0--6-6-6-6-6-6-6-6-5~-------------|
G|--0-0-0-0-0-0-0-0--6-6-6-6-6-6-6-6-5~-------------|
PM---------

[VERSE]

A|------------------------------------------------------------------------------------------------|
E|------------------------------------------------------------------------------------------------|
C|------------------------------------------------------------------------------------------------|
G|------------------------------------------------------------------------------------------------|
D|--0-0-0-0---------------------5-5-5-5-5-5-5-5-5-5-5-5---0--5-5-5-5-5-5-5-5-5-5-5-5---0----------|
G|--0-0-0-0--0-0-5-6-0-2-0-2-0--0-0-0-0-0-0-0-0-0-0-0-0-0-0--0-0-0-0-0-0-0-0-0-0-0-0-0-0----------|
PM  -----                                               -                            -

A|--------------------------------------------------------------------------|
E|--------------------------------------------------------------------------|
C|-This is repeated--------This is repeated for 2 and 1/2 beats-------------|
G|--for 4 beats-----7\------for 2 and 1/2 beats-----------------------------|
D|--5-5-5-5-5-5-5-5-5\-5-5-5-5-5-5-5-5--------------------------------------|
G|--0-0-0-0-0-0-0-0----0-0-0-0-0-0-0-0--------------------------------------|
PM------------------   ---------------

A|----------------------------|----------|---------------------|------------------------------------|
E|----------------------------|----------|---------------------|------------------------------------|
C|--------11/12---------------|----------|-------11/12---------|-------11/12--11/12-----------------|
G|--------x----------(X7)-----|----------|---------x-----(X7)--|-------x-------x--------------------|
D|--0-0---9/10----------------|--0-------|--0-0---9/10---------|--0-0--9/10---9/10------------------|
G|--0-0-----------------------|--0---2b--|--0-0----------------|--0-0--------0----------------------|
PM-----                          -  1/2   -------                 ---        -
 
                                                               The pick scrap is on the G string(3rd string)
A|-------------------------------------------|-----[9]----------------------------------------------|
E|-------------------------------------------|-----[9]---------------------------------Pick scrap---|
C|---------11/12--11/12----------------------|---- [9]----------------------------------------------|
G|----------x-------x--------------(X3)------|------------------------------------------------------|
D|---0-0--9/10----9/10-----------------------|--------0-0---0-0-0-0---0----0-0-0~-0-----------------|
G|---0-0--------0----------------------------|--2b----0-0---0-0-0-0---0----1-1-1~-1-----------------|
PM-----            -                           1/2    -----------------------------
                  
A|--------------------------------------------|----[9]---------------------------------------------|
E|--------------------------------------------|----[9]---------------------------------------------|
C|--------11/12--11/12------------------------|--- [9]---------------------------------------------|
G|---------x--------x----------------(X3)-----|------------------------------------------0---------|
D|---0-0--9/10----9/10------------------------|--------0-0---0-0-0-0---0-----0-0-0~-0----0---------|
G|---0-0--------0-----------------------------|-2b-----0-0---0-0-0-0---0-----0-0-0~-0----1---------|
PM------        -                               1/2    -----------------------------------
  

A|-------------------------------------------------------------------------------------------------|
E|-------------------------------------------------------------------------------------------------|
C|--2-2-2-2-2-2-2-2--------------------------------------------------------------------------------|
G|--0-0-0-0-0-0-0-0--13-13-13-13-13-13-13-13--12-12-12-12-12-12-12-12-12-12-12-12-12-12------------|
D|--0-0-0-0-0-0-0-0--11-11-11-11-11-11-11-11--10-10-10-10-10-10-10-10-10-10-10-10-10-10------------|
G|-------------------------------------------------------------------------------------------------|

[CHORUS 2]

A|--------------------------------------------------------------------------------|
E|--------------------------------------------------------------------------------|
C|---------------------------------------------------------------7s9-9-9----------|
G|--------------------------------------------------------------------------------| x2
D|---0-0-0-0-0-0-0-0-6-6-6-6-6-6-6-6-5-5-5-5-5-5-5-5-5-5-5-5-5-5------------------|
G|---0-0-0-0-0-0-0-0-6-6-6-6-6-6-6-6-5-5-5-5-5-5-5-5-5-5-5-5-5-5------------------|
              ------   

A|--------------------------------------------------------------------------------|
E|--------------------------------------------------------------------------------|
C|--------------------------------------------------------------------------------|
G|------------0-------------------------------------------------------------------|
D|--0-0-0-0-0-0--6-6-6-6-6-6-6-6-5-5-5-5-5-5-5-5-5-5-5-5-5-5-5-5------------------|
G|--0-0-0-0-0-0--6-6-6-6-6-6-6-6-5-5-5-5-5-5-5-5-5-5-5-5-5-5-5-5------------------|
PM-----------

A|-----------------------------------------|
E|-----------------------------------------|
C|-----------------------------------------|
G|----------0-0-0-0--6~-----5~-------------|
D|--0-0-0-0-0-0-0-0--6~-----5~-------------|
G|--0-0-0-0-0-0-0-0--6~-----5~-------------|
PM---------

[OUTRO]

A|----------------------------------------------------------------------------------------------|
E|----------------------------------------------------------------------------------------------|
C|----------------------------------------------------------------------------------------------|
G|----------------------------------------------------------------------------------------------|
D|--0-0---------------0--0-0--0-0-0-0--0-0--0-0-0-0----0 --0-0-0-0--0--0-0-0--0--0--0-----------|
G|--0-0---0-0-0-0-----0--0-0--0-0-0-0--1-0--1-0-0-0--0-0---0-0-0-0--0--1-1-1--5--3--1-----------|
PM---------------     --------------------------------     --------------------------  

A|-------------------------------------------------------------------------------------------|
E|-------------------------------------------------------------------------------------------|
C|-------------------------------------------------------------------------------------------|
G|-------------------------------------------------------------------------------------------|
D|--0-0~---0-0-0-0~ --0--0-0~---0-0-0-0~--0-0~--0-0----5--0--0~--0-0~---0-0-0-0~--0--0-0~----|
G|--0-1~---0-0-0-1~---0--0-1~---0-0-0-1~--0-1~--0-0-X--5--3--1~--0-1~---0-0-0-1~--0--0-1~----|
PM-------------------------------------------------             -----------------------------

A|---------------------------------------------------|
E|---------------------------------------------------|
C|---------------------------------------------------|
G|---------------------------------------------------|
D|--0-0-0-0~--0-0~--0-0---5--0--0~-------------------|
G|--0-0-0-1~--0-1~--0-0-X-5--3--1~-------------------|
PM  ------------------------------


Legend:

PM -: Plam mute
\ : slide out
/ : Slide in
h : Hammer on
~ : Let ring
X : Mute
[]: Natural Harmonic
B : Bend

            
            
Suggest correction
Creating personal tab
Creating personal tab
You can edit any tab online and save it as your Personal.

You can edit, replace or remove any tab part or add personal notes – all changes will be seen only by you.

Personal tabs can be accessed anytime from any device, even offline.
Learn more »
comments
print report bad tab
1 comment total.
0 reply
danilshishkin1 137 Sep 18, 2017 11:53 AM

Good tab, bud!

guest
You may want to rate the tab now too:
select rating
Wanna post a correction for this tab? Suggest correction