Oops, an error
Loading. Please wait.

Baby Lemonade tab

55,334 views 108 this week
2 commentsread comments
1 2 3 4 5
x 31
add to favorites
×
Save as Personal and add changes to this tab that will be seen only by you. Learn more ›
×
You can save this tab as Personal to edit and correct it or add notes. All changes will be seen only by you. Learn more »
launch autoscroll
font size
0
reset
how to read this tab
guitar tuner
edit
Autoscroll
slow
fast
+/-
esc
set tempo
stop
Artist: Syd Barrett
Song: Baby Lemonade
Album: Barrett (1970)

[Intro1]
   I have not attempted to indicate rhythm or timing in any way.
  "|" symbols demarcate sections of music and not measures.
  For line 4 and 5, finger like so:
      ----------- nth fret
      | | | | 1 |
      -----------
      | | | 2 | 3*
      -----------
      | | | | | |    * the third finger only frets when appropriate.

e|----0----2-----3----2------------0----2------|-3-2-0-------------------|
B|--0---0----0-0---0----0-0-r--0-----0----0-0--|-0-0-0-------------------|
G|--4----4----4-----4----4--e--2------4----4---|-4-4-4-------------------|  1
D|--------------------------s------------------|-------------------------|
A|--------------------------t------------------|-------------------------|
E|---------------------------------------------|-------------------------|


e|------0----2-----3----2----------0----2------|-3-2-4/5-----------------|
B|--0-----0----0-0---0----0-0-r--0---0----0-0--|-0-0-0-------------------|
G|--2/4----4----4-----4----4--e--2----4----4---|-4-4-4-------------------|  2
D|----------------------------s----------------|-------------------------|
A|----------------------------t----------------|-------------------------|
E|---------------------------------------------|-------------------------|

e|-5-3-0-----------------------------------------------------------------|
B|-------5-3-0-----------------------------------------------------------|
G|-------------4-2-0--0--------------------------------------------------|  3
D|------------------------0h2p0h2p0h2------------------------------------|
A|----------------------2------------------------------------------------|
E|-----------------------------------------------------------------------|


e|----0-----0-------9-----|---0-----0-------8------|---------------------|
B|------8-----8---8---8---|-----7-----7---7---7----|---------------------|
G|--9-----9-----9-------9-|-8-----8-----8-------8--|---------------------|  4
D|------------------------|------------------------|---------------------|
A|------------------------|------------------------|---------------------|
E|------------------------|------------------------|---------------------|

   ...and so on, moving down one fret at a time until...

e|---0-----0-------4-----|---0-----0-------4-----------------------------|
B|-----3-----3---3---3---|-----3-----3---3---3---------------------------|
G|-4-----4-----4-------4-|-4-----4-----4-------4-------------------------|  5
D|-----------------------|-----------------------------------------------|
A|-----------------------|-----------------------------------------------|
E|-----------------------|-----------------------------------------------|


e|-5-3-0-----------------------------------------------------------|-----|
B|-------5-3-0-----------------------------------------------------|-----|
G|-------------4-2-0-----------------------------------------------|-----|  6
D|-------------------5-2-0--0-h2-p0---0-2------------0-h1-h2---0---|-----|
A|----------------------------------2--------0-h1-h2---------2---1-|-----|
E|-----------------------------------------3-----------------------|-----|

[Intro2]
| A# | C# | A | G | D | A# | D# | A |

[Verse 1]
A#
In the sad town
     A
Cold iron hands    clap
    D                  A
The party of clowns outside
D                      A
Rain falls in grey far away
A#      D#                A#   G#
Please, please, baby lemonade

[Verse 2]
A#
In the evening
     A
Sun going down    when
    D                    A 
The Earth streams in in the morning
D                                A
Send a cage through the post
D                      A
Make your name like a ghost
A#      D#                A#   G#
Please, please, baby lemonade

[Verse 3]
A#
I'm screaming
A
I met you this way
       D               A
You're nice to me like ice
G
In the clock they sent
          D
Through a washing machine
A#                         A
Come around, make it soon, so alone
A#      D#                A#  G#
Please, please, baby lemonade

[Solo]
| A# | C# | A | G | D | A# | D# | A |

[Verse 4]
A#
In the sad town
     A
Cold iron hands    clap
    D                  A
The party of clowns outside
D                      A
Rain falls in grey far away
A#      D#                A#   G#
Please, please, baby lemonade

[Verse 5]
A#
In the evening
     A
Sun going down    when
    D                    A 
The Earth streams in in the morning
D                                A
Send a cage through the post
D                      A
Make your name like a ghost
A#      D#                A#   G#
Please, please, baby lemonade

[Outro]
A# G#  (x9)

| A# | C# | A | G | D | A# | D# | A |

(fade)


************************************
| h  Hammer-on
| p  Pull-off
| /  Slide up
************************************

            
            
Suggest correction
Creating personal tab
Creating personal tab
You can edit any tab online and save it as your Personal.

You can edit, replace or remove any tab part or add personal notes – all changes will be seen only by you.

Personal tabs can be accessed anytime from any device, even offline.
Learn more »
comments
print report bad tab
2 comments total.
0 reply
apples&oranges 369 Nov 27, 2006 11:00 AM

thats pretty much it, a few mistakes but good job nonetheless.

+2 reply
nuber 10 May 24, 2013 03:46 PM

This is awesome! And so much fun to play! Even though you made this ~7 years ago, thanks a lot

guest
Wanna post a correction for this tab? Suggest correction