Oops, an error
Loading. Please wait.

I Care tab

version 1
version 1

Whole song

  • This version includes the entire song minus most o... Show more
76 views 6 this week
no commentswrite comment
1 2 3 4 5
2 more votes to show rating
add to favorites
×
Save as Personal and add changes to this tab that will be seen only by you. Learn more ›
×
You can save this tab as Personal to edit and correct it or add notes. All changes will be seen only by you. Learn more »
launch autoscroll
font size
0
reset
how to read this tab
guitar tuner
edit
Autoscroll
slow
fast
+/-
esc
set tempo
stop
Hey all. This is how I play Icare by Syd Matters. It's a great song and seeing that
there is no tab for it I thought I would add mine. I admit its probably not 100%
accurate but it's darn close. I would like to credit Pimeko for the chord structures.

[Intro]
           C               F                   C                    F
e|--------------------------------------------------------------------------------|
B|------------1-----------------0h1----------------1-------------------0h1--------|
G|--------0------0---------2------------------0--------0----------2---------------|  (x2)
D|-----2----2----------3-----3------------2-----2-------------3-----3-------------|
A|--3---------------3------------------3-------------------3----------------------|
E|--------------------------------------------------------------------------------|



[Verse 1]
          C                 F                   C                F
e|-----------------------------------------------------------------------------------|
B|--------------1------------------0h1--------------1------------------0h1-----------|
G|---------0-------0----------2----------------0-------0----------2------------------|
D|------2----2------------3-----3-----------2-----2------------3-----3---------------|
A|---3-----------------3-----------------3------------------3------------------------|
E|-----------------------------------------------------------------------------------|

          C                 F                 C                F
e|-----------------------------------------------------------------------------------|
B|-------------1-----------------0h1---------------1------------------0h1------------|
G|--------0-------0---------2----------------0--------0---------2--------------------|
D|-----2----2------------3----3-----------2-----2------------3-----3-----------------|
A|---3----------------3----------------3------------------3--------------------------|
E|-----------------------------------------------------------------------------------|
 
          Am                  Dsus2                 G                Em
e|-----------------------------------0-----------------------------------------------|
B|--------------1--------------3--------3----------------0------------------0--------|
G|---------2-------2--------2-----2-----------------0------0------------0------0-----|
D|------2-----2----------0-----------------------0-----0-------------2----2----------|
A|---0-------------------------------------------------------------------------------|
E|-------------------------------------------3------------------0--------------------|

             F                    Em             F               Dsus2
e|--------------------------------------------------------------------0--------------|
B|---------------1------------------0----------------1----------3-------3------------|
G|---------2--------2----------0-------0---------2------2----------2-----------------|
D|------3-----3-------------2----2------------3----3----------0----------------------|
A|---3-------------------------------------3-----------------------------------------|
E|-----------------------0-----------------------------------------------------------|


           C                F                  C                F
e|------------------------------------------------------------------------------------|
B|--------------1-----------------0h1-------------1------------------0h1--------------|
G|---------0------0---------2----------------0-------0----------2---------------------| 
B|------2----2-----------3-----3----------2-----2------------3-----3------------------|
A|---3----------------3----------------3------------------3---------------------------|
E|------------------------------------------------------------------------------------|

          C                 F                  C                F
e|------------------------------------------------------------------------------------|
B|--------------1-----------------0h1-------------1------------------0h1--------------|
G|---------0------0---------2----------------0-------0----------2---------------------| 
B|------2----2-----------3-----3----------2-----2------------3-----3------------------|
A|---3----------------3----------------3------------------3---------------------------|
E|------------------------------------------------------------------------------------|




[Verse 2]
           C                   F                C              F
e|------------------------------------------------------------------------------------|
B|--------------1------------------0h1-------------1--------------0h1-----------------|
G|---------0-------0----------2----------------0------0-------2-----------------------|
B|------2-----2------------3-----3-----------2---2----------3---3---------------------|
A|---3------------------3-----------------3---------------3---------------------------|
E|------------------------------------------------------------------------------------|

          C                  F                C                F
e|------------------------------------------------------------------------------------|
B|--------------1-----------------0h1-------------1------------------0h1--------------|
G|---------0------0---------2----------------0-------0----------2---------------------| 
B|------2----2-----------3-----3----------2-----2------------3-----3------------------|
A|---3----------------3----------------3------------------3---------------------------|
E|------------------------------------------------------------------------------------|

         C                  F                 C                F
e|------------------------------------------------------------------------------------|
B|--------------1-----------------0h1-------------1------------------0h1--------------|
G|---------0------0---------2----------------0-------0----------2---------------------| 
B|------2----2-----------3-----3----------2-----2------------3-----3------------------|
A|---3----------------3----------------3------------------3---------------------------|
E|------------------------------------------------------------------------------------|

          Am                  Dsus2                 G                Em
e|-----------------------------------0-----------------------------------------------|
B|--------------1--------------3--------3----------------0------------------0--------|
G|---------2-------2--------2-----2-----------------0------0------------0------0-----|
D|------2-----2----------0-----------------------0-----0-------------2----2----------|
A|---0-------------------------------------------------------------------------------|
E|-------------------------------------------3------------------0--------------------|

             F                    Em             F               Dsus2
e|--------------------------------------------------------------------0--------------|
B|---------------1------------------0----------------1----------3-------3------------|
G|---------2--------2----------0-------0---------2------2----------2-----------------|
D|------3-----3-------------2----2------------3----3----------0----------------------|
A|---3-------------------------------------3-----------------------------------------|
E|-----------------------0-----------------------------------------------------------|



           C                F                  C                F
e|------------------------------------------------------------------------------------|
B|--------------1-----------------0h1-------------1------------------0h1--------------|
G|---------0------0---------2----------------0-------0----------2---------------------| 
B|------2----2-----------3-----3----------2-----2------------3-----3------------------|
A|---3----------------3----------------3------------------3---------------------------|
E|------------------------------------------------------------------------------------|

          C                 F                  C                F
e|------------------------------------------------------------------------------------|
B|--------------1-----------------0h1-------------1------------------0h1--------------|
G|---------0------0---------2----------------0-------0----------2---------------------| 
B|------2----2-----------3-----3----------2-----2------------3-----3------------------|
A|---3----------------3----------------3------------------3---------------------------|
E|------------------------------------------------------------------------------------|





[Verse 3]
           C                   F                C              F
e|------------------------------------------------------------------------------------|
B|--------------1------------------0h1-------------1--------------0h1-----------------|
G|---------0-------0----------2----------------0------0-------2-----------------------|
B|------2-----2------------3-----3-----------2---2----------3---3---------------------|
A|---3------------------3-----------------3---------------3---------------------------|
E|------------------------------------------------------------------------------------|

          C                  F                C                F
e|------------------------------------------------------------------------------------|
B|--------------1-----------------0h1-------------1------------------0h1--------------|
G|---------0------0---------2----------------0-------0----------2---------------------| 
B|------2----2-----------3-----3----------2-----2------------3-----3------------------|
A|---3----------------3----------------3------------------3---------------------------|
E|------------------------------------------------------------------------------------|

         C                  F                 C                F
e|------------------------------------------------------------------------------------|
B|--------------1-----------------0h1-------------1------------------0h1--------------|
G|---------0------0---------2----------------0-------0----------2---------------------| 
B|------2----2-----------3-----3----------2-----2------------3-----3------------------|
A|---3----------------3----------------3------------------3---------------------------|
E|------------------------------------------------------------------------------------|

          Am                  Dsus2                 G                Em
e|-----------------------------------0-----------------------------------------------|
B|--------------1--------------3--------3----------------0------------------0--------|
G|---------2-------2--------2-----2-----------------0------0------------0------0-----|
D|------2-----2----------0-----------------------0-----0-------------2----2----------|
A|---0-------------------------------------------------------------------------------|
E|-------------------------------------------3------------------0--------------------|

             F                    Em             F               Dsus2
e|--------------------------------------------------------------------0--------------|
B|---------------1------------------0----------------1----------3-------3------------|
G|---------2--------2----------0-------0---------2------2----------2-----------------|
D|------3-----3-------------2----2------------3----3----------0----------------------|
A|---3-------------------------------------3-----------------------------------------|
E|-----------------------0-----------------------------------------------------------|



           C                F                  C                F
e|------------------------------------------------------------------------------------|
B|--------------1-----------------0h1-------------1------------------0h1--------------|
G|---------0------0---------2----------------0-------0----------2---------------------| 
B|------2----2-----------3-----3----------2-----2------------3-----3------------------|
A|---3----------------3----------------3------------------3---------------------------|
E|------------------------------------------------------------------------------------|

          C                 F                  C                F
e|------------------------------------------------------------------------------------|
B|--------------1-----------------0h1-------------1------------------0h1--------------|
G|---------0------0---------2----------------0-------0----------2---------------------| 
B|------2----2-----------3-----3----------2-----2------------3-----3------------------|
A|---3----------------3----------------3------------------3---------------------------|
E|------------------------------------------------------------------------------------|





[Verse 4]
          C                 F                   C                F
e|-----------------------------------------------------------------------------------|
B|--------------1------------------0h1--------------1------------------0h1-----------|
G|---------0-------0----------2----------------0-------0----------2------------------|
D|------2----2------------3-----3-----------2-----2------------3-----3---------------|
A|---3-----------------3-----------------3------------------3------------------------|
E|-----------------------------------------------------------------------------------|

          C                 F                 C                F
e|-----------------------------------------------------------------------------------|
B|-------------1-----------------0h1---------------1------------------0h1------------|
G|--------0-------0---------2----------------0--------0---------2--------------------|
D|-----2----2------------3----3-----------2-----2------------3-----3-----------------|
A|---3----------------3----------------3------------------3--------------------------|
E|-----------------------------------------------------------------------------------|
 
          Am                  Dsus2                 G                Em
e|-----------------------------------0-----------------------------------------------|
B|--------------1--------------3--------3----------------0------------------0--------|
G|---------2-------2--------2-----2-----------------0------0------------0------0-----|
D|------2-----2----------0-----------------------0-----0-------------2----2----------|
A|---0-------------------------------------------------------------------------------|
E|-------------------------------------------3------------------0--------------------|

             F                    Em             F               Dsus2
e|--------------------------------------------------------------------0--------------|
B|---------------1------------------0----------------1----------3-------3------------|
G|---------2--------2----------0-------0---------2------2----------2-----------------|
D|------3-----3-------------2----2------------3----3----------0----------------------|
A|---3-------------------------------------3-----------------------------------------|
E|-----------------------0-----------------------------------------------------------|

[Chorus]
          Am                  Dsus2                 G                Em
e|-----------------------------------0-----------------------------------------------|
B|--------------1--------------3--------3----------------0------------------0--------|
G|---------2-------2--------2-----2-----------------0------0------------0------0-----|
D|------2-----2----------0-----------------------0-----0-------------2----2----------|
A|---0-------------------------------------------------------------------------------|
E|-------------------------------------------3------------------0--------------------|

             F                    Em             F               Dsus2
e|--------------------------------------------------------------------0--------------|
B|---------------1------------------0----------------1----------3-------3------------|
G|---------2--------2----------0-------0---------2------2----------2-----------------|
D|------3-----3-------------2----2------------3----3----------0----------------------|
A|---3-------------------------------------3-----------------------------------------|
E|-----------------------0-----------------------------------------------------------|

           C                F                  C                F
e|------------------------------------------------------------------------------------|
B|--------------1-----------------0h1-------------1------------------0h1--------------|
G|---------0------0---------2----------------0-------0----------2---------------------| 
B|------2----2-----------3-----3----------2-----2------------3-----3------------------|
A|---3----------------3----------------3------------------3---------------------------|
E|------------------------------------------------------------------------------------|

[Outro]
(Just play until you want to end the song)
           C                F                  C                F
e|------------------------------------------------------------------------------------|
B|--------------1-----------------0h1-------------1------------------0h1--------------|
G|---------0------0---------2----------------0-------0----------2---------------------| 
B|------2----2-----------3-----3----------2-----2------------3-----3------------------|
A|---3----------------3----------------3------------------3---------------------------|
E|------------------------------------------------------------------------------------|


************************************

| x   Dead note
| g   Grace note
| (n) Ghost note
| h   Hammer-on
| p   Pull-off
| r   Release
| >   Accented note
| t   Tapping
| b   Bend
| br  Bend release
| pb  Pre-bend
| pbr Pre-bend release
| /   Slide up
| \   Slide down
| ~   Vibrato
| s   Slap
| P   Pop
| PM  Palm mute
| TR  Trill
| N   Tremolo

************************************

            
            
Suggest correction
Creating personal tab
Creating personal tab
You can edit any tab online and save it as your Personal.

You can edit, replace or remove any tab part or add personal notes – all changes will be seen only by you.

Personal tabs can be accessed anytime from any device, even offline.
Learn more »
Give kudos to tab author, rate the tab!
1 2 3 4 5
comments
print report bad tab
guest
You may want to rate the tab now too:
select rating
Wanna post a correction for this tab? Suggest correction