Oops, an error
Loading. Please wait.

Fear The World tab

version 1
version 1

Whole song

Interactive

by Sylosis
9,844 views 12 this week
5 commentsread comments
1 2 3 4 5
x 9
add to favorites
×
Save as Personal and add changes to this tab that will be seen only by you. Learn more ›
×
You can save this tab as Personal to edit and correct it or add notes. All changes will be seen only by you. Learn more »
launch autoscroll
font size
0
reset
how to read this tab
guitar tuner
edit
Autoscroll
slow
fast
+/-
esc
set tempo
stop
Author
Difficulty
-------------------------------------------------------------------------------
                             Fear The World - Sylosis
-------------------------------------------------------------------------------
Tabbed by: Dan O'Brien
Contact: http://www.youtube.com/danobrien2468

Tuning: Standard (EADGBe)

0:00 - 0:23
e|------------|--------1-0----------|
B|------------|----1-3-----3--------|
G|---------0--|--------------2------|
D|---2-0------|----------------0----|
A|-0-----3----|--3------------------|
E|------------|---------------------|



0:23 - 0:28
e|------------------------------------------------------|
B|------------------------------------------------------|
G|------------------------------------------------------|
D|-2-----------------------------------2h3p20-----------|
A|-0-0000-3p0-1p0-00000000-3p0h1h3p1p0------------------|
E|--------------------------------------------1h3p1p0---|



0:28 - 0:51
e|---------------------------------------------------------------------------|
B|---------------------------------------------------------------------------|
G|---------------------------------------------------------------------------|
D|----------------------------------------------3----------------------------|
A|-000000-3p0-1p0-00000000----------------------1----000000-3p0-1p0-00000000-|
E|------------------------33-11-00-11-33-11-00--1----------------------------|
Pm ......         .......... .. .. .. .. .. ..       ......         ........

e|------------------------------------------|
B|------------------------------------------|
G|------------------------------------------|
D|-------------2h3p20----------3--5---------|
A|-3p0h1h3p1p0-----------------1--3---------|
E|--------------------1h3p1p0--1--3--0-3v---|
Pm                                   .



0:51 - 1:14
e|---------------------------------------------------------------------------|
B|---------------------------------------------------------------------------|
G|---------------------------------------------------------------------------|
D|-22222222-2---------33333333-333--33--22222222-2---------33333333----------|
A|-00000000-0---------11111111-111--11--00000000-0---------11111111----------|
E|-----------3101310--------------11--1-----------3101310--------------------|
Pm ........ ........  ........ ........ ........ ........  ........

e|---------------------|
B|---------------------|
G|---------------------|
D|-7h8p7-----10--------|
A|-------8-7----8-5----|
E|---------------------|

e|---------------------------------------------------------------------------|
B|---------------------------------------------------------------------------|
G|---------------------------------------------------------------------------|
D|-22222222-2---------3333333333333333-22222222-2---------33333333-----------|
A|-00000000-0---------1111111111111111-00000000-0---------11111111-8-7-10-8--|
E|-00000000-03101310--1111111111111111-00000000-03101310--11111111-----------|
Pm ........ ........  ................ ........ ........  ........



1:14 - 1:25
e|----------8h12/17p12------12h13p12---13p10---------------------------------|
B|--------10----------13--13--------13------11-------------------------------|
G|-------9--------------14--------------------10-----------------------------|
D|-----10---------------------------------------12--------10h14p10/9h10p9----|
A|-7h12-------------------------------------------13p8h13-----------------12-|
E|---------------------------------------------------------------------------|

e|------------|
B|------------|
G|---------9--|
D|---------x--|
A|---------7--|
E|-00-00-0----|
Pm .. .. .



1:25 - 1:48
e|---------------------------------------------------------------------------|
B|---------------------------------------------------------------------------|
G|---------------------------------------------------------------------------|
D|----------------------------------------------3----------------------------|
A|-000000-3p0-1p0-00000000----------------------1----000000-3p0-1p0-00000000-|
E|------------------------33-11-00-11-33-11-00--1----------------------------|
Pm ......         .......... .. .. .. .. .. ..       ......         ........

e|------------------------------------------|
B|------------------------------------------|
G|------------------------------------------|
D|-------------2h3p20----------3--5---------|
A|-3p0h1h3p1p0-----------------1--3---------|
E|--------------------1h3p1p0--1--3--0-3v---|
Pm                                   .



1:48 - 2:00
e|------------------------------------------|--------------------------|
B|----------------10--------11---10-8-10----|-10h11p10------13---------|
G|---------------------10-9--------------10-|----------10-9----10------|
D|-7-7h8p7----8-7----7---------8------------|---------------------12---|
A|---------10-------------------------------|--------------------------|
E|------------------------------------------|--------------------------|



2:00 - 2:11
e|---------------------------------------------------------------------------|
B|---------------------------------------------------------------------------|
G|---------------------------------------------------------------------------|
D|-22222222-2---------3333333333333333-22222222-2---------33333333-----------|
A|-00000000-0---------1111111111111111-00000000-0---------11111111-8-7-10-8--|
E|-00000000-03101310--1111111111111111-00000000-03101310--11111111-----------|
Pm ........ ........  ................ ........ ........  ........



2:11 - 2:23
e|------------------------------------------|--------------------------|
B|----------------10--------11---10-8-10----|-10h11p10------13---------|
G|---------------------10-9--------------10-|----------10-9----10------|
D|-7-7h8p7----8-7----7---------8------------|---------------------12---|
A|---------10-------------------------------|--------------------------|
E|------------------------------------------|--------------------------|



2:23 - 2:45
e|----------------------------------------------------------------------------|
B|----------------------------------------------------------------------------|
G|-----------------------------------------------------------------9/7-10/9-12|
D|-22222222-2---------3333333333333333-22222222-2---------33333333-x-x-x-x--x-|
A|-00000000-0---------1111111111133113-00000000-0---------11111111-7/5-8/7--10|
E|-00000000-03101310--1111111111111111-00000000-03101310--11111111------------|
Pm ........ ........  ................ ........ ........  ........



2:45 - 2:57
e|----------8h12/17p12------12h13p12---13p10---------------------------------|
B|--------10----------13--13--------13------11-------------------------------|
G|-------9--------------14--------------------10-----------------------------|
D|-----10---------------------------------------12--------10h14p10/9h10p9----|
A|-7h12-------------------------------------------13p8h13-----------------12-|
E|---------------------------------------------------------------------------|

e|------------|
B|------------|
G|---------9--|
D|---------x--|
A|---------7--|
E|-00-00-0----|
Pm .. .. .


2:57 - 3:31
e|------------------------------------------------------|----------------|
B|------------------------------------------------------|----------------|
G|------------------------------------------------------|----------------|
D|-2-2---2-2---2-2---2-2---2--2-2---2-2---2-2---2-2--2--|-2-2-2-2-2-2----|
A|-0-0---0-0---0-0---0-0---0--0-0---0-0---0-0---0-0--0--|-0-0-0-0-0-0----|
E|------------------------------------------------------|-0-0-0-0-0-0----|
Pm . .   . .   . .   . .   .  . .   . .   . .   . .  .    . . . . . .



3:31 - 3:54
e|------------------------------------------------------------------|
B|-------------------------------------------------------------11---|
G|--------9----------------9----------------9---------------10------|
D|-10-9-7---/10-7-9-10-9-7---/10-7-9-10-9-7---/10-7-9-/12-8---------|
A|------------------------------------------------------------------|
E|------------------------------------------------------------------|



3:54 - 4:17
e|------------------------------------------------------------------------------|
B|----------------------15~~~~13~~---------------5556668886665566--5h6p5---5----|
G|-14pb15r-12-14--12-14----14~~~~~-12-14-9-10-9--5555555555555555--------7---7-5|
D|------------------------------------------------------------------------------|
A|------------------------------------------------------------------------------|
E|------------------------------------------------------------------------------|

e|-----------------------------|
B|-----------------------------|
G|-2h3p2-0---0-----------------|
D|---------3---3--2h3p2---2----|
A|----------------------5---3--|
E|-----------------------------|

e|----------------------------------5h6p5---------------------|
B|------------------------5h6p5----------6p5h6-8----8---------|
G|--------------5h7p5----------7p5h7--------------7---7-5-4---|
D|----5h7p5----------7p5h7------------------------------------|
A|-5h7-----7p5h7----------------------------------------------|
E|------------------------------------------------------------|

e|-----------12h15p12--------12h15p12------------------12h15p12--------12h15p12---------|
B|--------------------------------------------------------------------------------------|
G|------12h14--------14p12h14--------14p12h14-----12h14--------14p12h14--------14p12h14-|
D|--------------------------------------------------------------------------------------|
A|-12h15-------------------------------------12h15--------------------------------------|
E|--------------------------------------------------------------------------------------|

e|-17h20p17------13h17p13--------------13h17t18p17p13h17t22---|
B|---------18--18--------15----------15-----------------------|
G|-----------17------------14------14-------------------------|
D|---------------------------15--15---------------------------|
A|-----------------------------17-----------------------------|
E|------------------------------------------------------------|



4:17 - 4:28
e|-------------------------------------------------------------------------------------|
B|-------------------------------------------------------------------------------------|
G|-------------------------------------------------------------------------------------|
D|-2------------3--------2-------------3-3---2------------3--------2-------------3-3---|
A|-0------------1-111111-0-------------1-3---0------------1-111111-0-------------1-3---|
E|--3-1-0-1-3-1------------3-1-0-1-3-1-1-1----3-1-0-1-3-1------------3-1-0-1-3-1-1-1---|
Pm  . . . . . .   ......   . . . . . .        . . . . . .   ......   . . . . . .



4:28 - 4:40
e|------------------------------------------|--------------------------|
B|----------------10--------11---10-8-10----|-10h11p10------13---------|
G|---------------------10-9--------------10-|----------10-9----10------|
D|-7-7h8p7----8-7----7---------8------------|---------------------12---|
A|---------10-------------------------------|--------------------------|
E|------------------------------------------|--------------------------|


Enjoy people! :)

-Dan

            
            
Suggest correction
Creating personal tab
Creating personal tab
You can edit any tab online and save it as your Personal.

You can edit, replace or remove any tab part or add personal notes – all changes will be seen only by you.

Personal tabs can be accessed anytime from any device, even offline.
Learn more »
comments
print report bad tab
5 comments total. Showing first comments.
0 reply
slipknot836 1,849 Nov 30, 2012 11:06 AM

Well done dude!

0 reply
slipknot836 1,849 Nov 30, 2012 11:08 AM

By the way, I recognize your name. Is this your second profile?

0 reply
patrike12345 11 Nov 30, 2012 01:49 PM

Great job man!! This song has a tone of good riffs

guest
You may want to rate the tab now too:
select rating
Wanna post a correction for this tab? Suggest correction