Oops, an error
Loading. Please wait.

Forever In Love Acoustic intro tab

by Sylver
691 views 1 this week
1 commentread comment
1 2 3 4 5
3 more votes to show rating
add to favorites
×
Save as Personal and add changes to this tab that will be seen only by you. Learn more ›
×
You can save this tab as Personal to edit and correct it or add notes. All changes will be seen only by you. Learn more »
launch autoscroll
font size
0
reset
how to read this tab
guitar tuner
edit
Autoscroll
slow
fast
+/-
esc
set tempo
stop
Forever In Love (acoustic) - Sylver

This is the solo intro of forever in love thats played in the background while
playing the chords. 
I' not sure if thats how its played but it sounded ok to me... anyone is free to
check it and correct it plz! Ty all and enjoy it!

Standard Tuning
              
e|-2-0------------------------0-1-0^-0-------------------------------------|
B|-----3-2^-0^-0-0-2-3-3^-3-3----------3-2-0---0---------------------------|
G|-------------------------------------------2-----------------------------|
D|-------------------------------------------------------------------------|
A|-------------------------------------------------------------------------|
E|-------------------------------------------------------------------------|


^ = smalls pauses

            
            
Suggest correction
Creating personal tab
Creating personal tab
You can edit any tab online and save it as your Personal.

You can edit, replace or remove any tab part or add personal notes – all changes will be seen only by you.

Personal tabs can be accessed anytime from any device, even offline.
Learn more »
Give kudos to tab author, rate the tab!
1 2 3 4 5
comments
print report bad tab
1 comment total.
0 reply
the_king00 10 Jul 06, 2006 11:16 AM

e|-2-0------------------------0-2-0^-0-------------------------------------|
B|-----3-2^-0^-0-0-2-3-3^-3-3----------3-2-0---0---------------------------|
G|-------------------------------------------2-----------------------------|
D|-------------------------------------------------------------------------|
A|-------------------------------------------------------------------------|
E|-------------------------------------------------------------------------|

this is the right one..(1 mistake)

guest
Wanna post a correction for this tab? Suggest correction